Oops, an error
Loading. Please wait.

Jawbreaker Tab

2,854 views 6 this week
no commentswrite comment
1 2 3 4 5
excellent!
x 3
add to favorites
launch autoscroll
font size
0
reset
how to read this tab
guitar tuner
Tab Pro tools
  • play this tab
  • loop segment
  • change instrument
  • show fretboard
  • metronome
×
Best way to learn
"Jawbreaker"
Autoscroll
slow
fast
+/-
esc
set tempo
stop
Contributor
Difficulty
Tuning
novice
C G C F A D
Chevelle - Jawbreaker
#4 off of La Gargola

Tuning: C G C F A D (low to high)

INTRO - Part 1
Guitar 1
      v - Harmonics
D|--------------------------------------------|
A|--------------------------------------------|
F|--------------------------------------------|
C|--------------------------------------------|
G|-xx-----------------------------------------|
C|-xx-5*-4*-3*-2*-1*--------------------------|
      ^ - slide slowly from the 5th fret to approx. the 1st fret

INTRO - Part 2
     (The strum numbers are approximate)
Guitar 1 - 4x
D|--------------------------------------------|
A|--------------------------------------------|
F|--------------------------------------------|
C|--------------------------------------------|
G|--8-(16x)-10-(8x)-9-(24x)-------------------|
C|--------------------------------------------|

VERSE - Part 1
           :43             :51                       :58
D|---------------------------------------------------------------|
A|--------------------------xxxxxx--------------------xxxxxxxx---|
F|--------------------------xxxxxx--------------------xxxxxxxx---|
C|----------7---------------xxxxxx---7----------------xxxxxxxx---|
G|----------7-slide down----xxxxxx-0-7-slide down-----xxxxxxxx---|
C|--15<<<<--7---------------xxxxxx-0-7----------------xxxxxxxx---|
                                                      ^^^^^^^^
 Strum around the 2nd to 5th frets to get those harmonic sounds

VERSE - Part 2
D|------------------------------------------------------------------------|
A|------------------------------------------------------------------------|
F|------------------------------------------------------------------------|
C|xx-0-0-10-12-12-12--0-0-10-13-13-13--0-0-10-12-12-12--0-0-10-13-13-13---|
G|xx-0-0-10-12-12-12--0-0-10-13-13-13--0-0-10-12-12-12--0-0-10-13-13-13---|
C|xx-0-0-10-12-12-12--0-0-10-13-13-13--0-0-10-12-12-12--0-0-10-13-13-13---|

D|------------------------------------------------------------------------|
A|------------------------------------------------------------------------|
F|------------------------------------------------------------------------|
C|00-10-12-12-12--0-0-10-13-13-13--0-0-10-12-12-12--0-0-10-13-13-xx-7-----|
G|00-10-12-12-12--0-0-10-13-13-13--0-0-10-12-12-12--0-0-10-13-13-xx-7<<<<-|
C|00-10-12-12-12--0-0-10-13-13-13--0-0-10-12-12-12--0-0-10-13-13-xx-7-----|

VERSE - Part 3
2x
  1:33
D|------------------------------------------------------------|
A|------------------------------------------------------------|
F|------------------------------------------------------------|
C|------------------------------------------------------------|
G|------------------------------------------------------------|
C|-7-7758--8-8-5-7-7758--8-8-5-7-7758--8-8-5-x-7-8-5-7-8-5-7--|
   . ....  . . . . ....  . . . . ....  . . .

Play VERSE Part 2 1x
Play INTRO Part 2 2x

BRIDGE - Part 1
Not exact strumming but its easy to figure out.
Have no clue what the effect is.  Seems to have some wah in there
D|------------------------------------------------|
A|------------------------------------------------|
F|------------------------------------------------|
C|-12tr---10-(8x)--12tr---12b---12tr---10---(8x)--|
G|------------------------------------------------|
C|------------------------------------------------|

BRIDGE - Part 2
There is a lot going on here but this is the gist of it
D|------------------------------------------------------------------|
A|--6-(16x)-8-(8x)-7-(24x)------------------------------------------|
F|-------------------------(2x)--7----------------------------------|
C|-------------------------------x----------------------------------|
G|-------------------------------5--5tr-10tr-9tr-8tr-5tr-10tr-9tr---|
C|------------------------------------------------------------------|

Play INTRO Part 2 - 2x

In the next part, there are 3 guitars playing. I guess you can play whatever is your favorite part.
Guitar 1 - INTRO Part 2
Guitar 2 - VERSE Part 2
Guitar 3 - BRIDGE Part 2

OUTRO
D|---------------------------------------------------------------------|
A|---------------------------------------------------------------------|
F|---------------------------------------------------------------------|
C|---------------------------------------------------------------------|
G|8-(8x)-5555-7777-0-(16x)-8-(8x)-5555-7777-0-(12x)-10-(4x)-8888-------|
C|8------5555-7777-0-------8------5555-7777-0-------10------88888b-7---|

D|--------------------------------------------|
A|--------------------------------------------|
F|--------------------------------------------|
C|--------------------------------------------|
G|-5555-7777--(16x)--------------0------------|
C|-5555-7777-0--------8---5---7--0------------|
comments
We did not receive enough feedback on this tab! Please rate:
print report bad tab
1 2 3 4 5
I want to post or [tab]
guest
You may want to rate the tab now too:
select rating
Please do not post tabs as comments. Select "correction" instead!