Oops, an error
Loading. Please wait.

Joyride Omen tab

version 1
version 1

Whole song

5,566 views 27 this week
no commentswrite comment
1 2 3 4 5
x 11
add to favorites
×
Save as Personal and add changes to this tab that will be seen only by you. Learn more ›
×
You can save this tab as Personal to edit and correct it or add notes. All changes will be seen only by you. Learn more »
launch autoscroll
font size
0
reset
how to read this tab
guitar tuner
edit
Autoscroll
slow
fast
+/-
esc
set tempo
stop
[Verse 1]

D|---------------------------------------------------------------------------|
A|---------------------------------------------------------------------------|
F|--------9-------------------10---------------9------------------10---------|
C|---------------------------------------------------------------------/10\--|
G|-----7--------------8--7------------------7---------------8--7-------------|
C|-7-------------------------------------7-----------------------------------|

D|---------------------------------------------------------------------------|
A|---------------------------------------------------------------------------|
F|--------9-------------------10---------------9------------------10---------|
C|----------------------------------------------------------------------7----|
G|-----7--------------8--7------------------7---------------8--7-------------|
C|-7-------------------------------------7-----------------------------------|

[Chorus]

D|---------------------------------------------------------------------------|
A|---------------------------------------------------------------------------|
F|---------------------------------------------------------------------------|
C|-7---7----7-7--7-7-9b----------------7---7----7-7--7-7-9b------------------|
G|-7---7----7-7--7-7-------------------7---7----7-7--7-7---------------------|
C|-7---7----7-7--7-7-------------------7---7----7-7--7-7---------------------|
       PM                                  PM                                 x2

D|---------------------------------------------------------------------------|
A|---------------------------------------------------------------------------|
F|---------------------------------------------------------------------------|
C|-7---7----7-7--7-7-9b----------------7---7----7-7--7-7-9b---------(9)------|
G|-7---7----7-7--7-7-------------------7---7----7-7--7-7---------------------|
C|-7---7----7-7--7-7-------------------7---7----7-7--7-7---------------------|
       PM                                  PM


[Verse 2]

D|---------------------------------------------------------------------------|
A|---------------------------------------------------------------------------|
F|-0-2-2-2-2-2-5-2-2-2-2-2-4-2-2-2-------------------------------------------|
C|---------------------------------3-3-3-3-3-3-3-3-3-2-3-2-2h-5-2p-0---------|
G|---------------------------------------------------------------------------|
C|---------------------------------------------------------------------------|
PM
                                                                                x2
D|---------------------------------------------------------------------------|
A|---------------------------------------------------------------------------|
F|-0-2-2-2-2-2-4-2-2-2-2-2-5-2-2-2-------------------------------------------|
C|---------------------------------3-3-3-3-3-3-3-3-3-2-3-2-2h-5-2p-0---------|
G|---------------------------------------------------------------------------|
C|---------------------------------------------------------------------------|
PM


[Chorus]

D|---------------------------------------------------------------------------|
A|---------------------------------------------------------------------------|
F|---------------------------------------------------------------------------|
C|-7---7----7-7--7-7-9b----------------7---7----7-7--7-7-9b------------------|
G|-7---7----7-7--7-7-------------------7---7----7-7--7-7---------------------|
C|-7---7----7-7--7-7-------------------7---7----7-7--7-7---------------------|
       PM                                  PM
                                                                                x2
D|---------------------------------------------------------------------------|
A|---------------------------------------------------------------------------|
F|---------------------------------------------------------------------------|
C|-7---7----7-7--7-7-9b----------------7---7----7-7--7-7-9b------------------|
G|-7---7----7-7--7-7-------------------7---7----7-7--7-7---------------------|
C|-7---7----7-7--7-7-------------------7---7----7-7--7-7---------------------|
       PM                                  PM


[Bridge 1]

D|---------------------------------------------------------------------------|
A|---------------------------------------------------------------------------|
F|---------------------------------------------------------------------------|
C|-2---x-x-x-x---x---x---x-x-x-x-x-----2---x-x-x-x---x---x---x-x-x-x-x-------|
G|-2---x-x-x-x---x---x---x-x-x-x-x-----2---x-x-x-x---x---x---x-x-x-x-x-------|
C|-2---x-x-x-x---x---x---x-x-x-x-x-----2---x-x-x-x---x---x---x-x-x-x-x-------|

D|---------------------------------------------------------------------------|
A|---------------------------------------------------------------------------|
F|---------------------------------------------------------------------------|
C|-2---x-x-x-x---x---x---x-x-x-x-x-----2---x-x-x-x---x---x---x-x-x-x-x-------|
G|-2---x-x-x-x---x---x---x-x-x-x-x-----2---x-x-x-x---x---x---x-x-x-x-x-------|
C|-2---x-x-x-x---x---x---x-x-x-x-x-----2---x-x-x-x---x---x---x-x-x-x-x-------|


D|---------------------------------------------------------------------------|
A|---------------------------------------------------------------------------|
F|---------------------------------------------------------------------------|
C|-2---x-x-x-x---x---x---x-x-x-x-x-----2---x-x-x-x---x---x---x-x-x-x-x-------|
G|-2---x-x-x-x---x---x---x-x-x-x-x-----2---x-x-x-x---x---x---x-x-x-x-x-------|
C|-2---x-x-x-x---x---x---x-x-x-x-x-----2---x-x-x-x---x---x---x-x-x-x-x-------|


D|---------------------------------------------------------------------------|
A|---------------------------------------------------------------------------|
F|---------------------------------------------------------------------------|
C|-2---x-x-x-x---x---x---x-x-x-x-x-----2---x-x-x-x-2---x-x-x-x-2-------------|
G|-2---x-x-x-x---x---x---x-x-x-x-x-----2---x-x-x-x-2---x-x-x-x-2-------------|
C|-2---x-x-x-x---x---x---x-x-x-x-x-----2---x-x-x-x-2---x-x-x-x-2-------------|


[Bridge 2]

D|---------------------------------------------------------------------------|
A|---------------------------------------------------------------------------|
F|---------------------------------------------------------------------------|
C|---------------------------------------------------------------------------|
G|-0-12-0-0-12-0-0-15-0-0-12-0-0-10-0-0-0-8-0-0-8-0-0-8-0-7-0-0-7-8-7-0------|  x2
C|---------------------------------------------------------------------------|


[Bridge 3]

D|---------------------------------------------------------------------------|
A|---------------------------------------------------------------------------|
F|---------------------------------------------------------------------------|
C|-5-7--7--7-10--7-7--7-5--5-3---3--3-3-x-2-2--2-2-2-2-----------------------|  x4
G|-5-7--7--7-10--7-7--7-5--5-3---3--3-3-x-2-2--2-2-2-2-----------------------|
C|-5-7--7--7-10--7-7--7-5--5-3---3--3-3-x-2-2--2-2-2-2-----------------------|


[Chorus]

D|---------------------------------------------------------------------------|
A|---------------------------------------------------------------------------|
F|---------------------------------------------------------------------------|
C|-7---7----7-7--7-7-9b----------------7---7----7-7--7-7-9b------------------|
G|-7---7----7-7--7-7-------------------7---7----7-7--7-7---------------------|
C|-7---7----7-7--7-7-------------------7---7----7-7--7-7---------------------|
       PM                                  PM
                                                                                x2
D|---------------------------------------------------------------------------|
A|---------------------------------------------------------------------------|
F|---------------------------------------------------------------------------|
C|-7---7----7-7--7-7-9b----------------7---7----7-7--7-7-9b------------------|
G|-7---7----7-7--7-7-------------------7---7----7-7--7-7---------------------|
C|-7---7----7-7--7-7-------------------7---7----7-7--7-7---------------------|
       PM                                  PM


[Chorus End]

D|---------------------------------------------------------------------------|
A|---------------------------------------------------------------------------|
F|---------------------------------------------------------------------------|
C|-7---7----7-7--7-7-9b----------------7---7----7-7--7-7-9b------------------|
G|-7---7----7-7--7-7-------------------7---7----7-7--7-7---------------------|
C|-7---7----7-7--7-7-------------------7---7----7-7--7-7---------------------|
       PM                                  PM

D|---------------------------------------------------------------------------|
A|---------------------------------------------------------------------------|
F|---------------------------------------------------------------------------|
C|-7---7----7-7--7-7-9b----------------7---7----7-7--7-7-7---7---7-----------|
G|-7---7----7-7--7-7-------------------7---7----7-7--7-7-7---7---7-----------|
C|-7---7----7-7--7-7-------------------7---7----7-7--7-7-7---7---7-----------|
       PM                                  PM            PM  PM  PM

************************************

| x    Dead note
| (n)  Ghost note
| h    Hammer-on
| p    Pull-off
| b    Bend
| PM   Palm mute

************************************

            
            
Suggest correction
Creating personal tab
Creating personal tab
You can edit any tab online and save it as your Personal.

You can edit, replace or remove any tab part or add personal notes – all changes will be seen only by you.

Personal tabs can be accessed anytime from any device, even offline.
Learn more »
comments
print report bad tab
guest
You may want to rate the tab now too:
select rating
Wanna post a correction for this tab? Suggest correction