Oops, an error
Loading. Please wait.

Joyride Omen tab

version 2
version 2

Whole song

1,754 views 18 this week
no commentswrite comment
1 2 3 4 5
x 4
add to favorites
×
Save as Personal and add changes to this tab that will be seen only by you. Learn more ›
×
You can save this tab as Personal to edit and correct it or add notes. All changes will be seen only by you. Learn more »
launch autoscroll
font size
0
reset
how to read this tab
guitar tuner
edit
Autoscroll
slow
fast
+/-
esc
set tempo
stop
Tabbed by : MetalSlayer09


[Intro/Verse 1]

D|--------------------------------------|
A|--------------------------------------|
F|------9------10-------9------10-------|
C|---7-------7-------7-------7----7/10--| x2
G|-7-------8-------7--------8-----------|
C|---------------8----------------------|


[Chorus]

D|-----------------|
A|-----------------|
F|-----------------|
C|-7--7-7--7-7--9b-| repeat as needed
G|-7--7-7--7-7-----|
C|-7--7-7--7-7-----|


[Verse 2]

D|-----------------------------------|
A|-----------------------------------|
F|-----------------------------------| 
C|-7-7-7-7-7-10-7-7-7-7-7-9-7-7-7-7--|
G|-----------------------------------|
C|-----------------------------------|

D|----------------------------------|
A|----------------------------------|
F|----------------------------------|
C|-3-3-3-3-3-3-3-3-2-2-2-2-2-3-2-0--|
G|----------------------------------|
C|----------------------------------|

D|----------------------------------|
A|----------------------------------|
F|----------------------------------|
C|-7-7-7-7-7-9-7-7-7-7-7-10-7-7-7-7-|
G|----------------------------------|
C|----------------------------------|

D|----------------------------------|
A|----------------------------------|
F|----------------------------------|
C|-3-3-3-3-3-3-3-3-2-2-2-2-2-3-2-0--|
G|----------------------------------|
C|----------------------------------|


[Chorus]

D|-----------------|
A|-----------------|
F|-----------------|
C|-7--7-7--7-7--9b-| repeat as needed
G|-7--7-7--7-7-----|
C|-7--7-7--7-7-----|


then this:
(there probably aren't the right number of mutes here
but you get the idea)

D|-------------------------|
A|-------------------------|
F|-x-x--x-x--x-x--x-x------|
C|-x-x--x-x--x-x--x-x--2-2-| times a bunch
G|-x-x--x-x--x-x--x-x--2-2-|
C|---------------------2-2-|


[Interlude]

D|-----------------------------------------------------------------|
A|-----------------------------------------------------------------|
F|-----------------------------------------------------------------|
C|-7-------7-----10-----7------5-----3-------3-----2----2-2-3-2-0--|
G|---0-0-0---0-0----0-0----0-0---0-0---0-0-0---0-0---0-0-0---------|
C|-----------------------------------------------------------------|

and you can figure out the rhythm to this part but here are the notes.
  
D|--------------|
A|--------------|
F|--------------|
C|-7-10-7-5-3-2-|
G|-7-10-7-5-3-2-|
C|-7-10-7-5-3-2-|
Suggest correction
Creating personal tab
Creating personal tab
You can edit any tab online and save it as your Personal.

You can edit, replace or remove any tab part or add personal notes – all changes will be seen only by you.

Personal tabs can be accessed anytime from any device, even offline.
Learn more »
comments
print report bad tab
guest
You may want to rate the tab now too:
select rating
Wanna post a correction for this tab? Suggest correction