Oops, an error
Loading. Please wait.

Letos Headache Tab

version 1
version 1

Whole song

Interactive

1,278 views 6 this week
no commentswrite comment
1 2 3 4 5
please rate
add to favorites
launch autoscroll
font size
0
reset
how to read this tab
guitar tuner
Tab Pro tools
  • play this tab
  • loop segment
  • change instrument
  • show fretboard
  • metronome
×
Best way to learn
"Letos Headache"
Autoscroll
slow
fast
+/-
esc
set tempo
stop
Contributor
Difficulty
Tuning
novice
B F# B E G# C#
Song: Leto's Headache
Artist: Chevelle
Tabbbed by: MetalSlayer09

Tuning: Drop b

intro is sliding harmonics on the low b string from the first fret up to the 12th

----------------------------------------------------------------------------------|
----------------------------------------------------------------------------------|
----------------------------------------------------------------------------------|
----------------------------------------------------------------------------------|
--8-7-5-7-0-0-10-8-7-8-0-8-10-8-7-5-7-0-0--8-7-5-7-0-8-10-8-7-5-7-0-0-8-7-5-7-0-8-|
--8-7-5-7-0-0-10-8-7-8-0-8-10-8-7-5-7-0-0--8-7-5-7-0-8-10-8-7-5-7-0-0-8-7-5-7-0-8-|

-------------------------------------------------------------|
-------------------------------------------------------------|
-------------------------------------------------------------|
-------------------------------------------------------------|
-10-8-7-5-7-0-0-10-8-8-8-------------------------------------|
-10-8-7-5-7-0-0-10-8-8-8-------------------------------------|


verse (sounds like the harmonics are played very lightly in the background,
also this sounds like bass but It's more fun to play than silence.)

                        this      healthy       unhealthy voice
-----------------------------------------------------------------|
-----------------------------------------------------------------|
-----------------------------------------------------------------|
-----------------------------------------------------------------|
-----------------------------------------------------------------|
-0-0-0-0-0-0-0-0-0-0-0-0-0-0-0-0-3-3-3-3-3-3-3-3-8-8-8-8-8-8-8-8-|

                         sits     lennon        for you
------------------------------------------------------------------------------------|
------------------------------------------------------------------------------------|
------------------------------------------------------------------------------------|
------------------------------------------------------------------------------------|
------------------------------------------------------------------------------------|
-0-0-0-0-0-0-0-0-0-0-0-0-0-0-0-0-3-3-3-3-3-3-3-3-10-10-10-10-10-10-10-10------------|

                        your       healthy      unhealthy voices
-----------------------------------------------------------------|
-----------------------------------------------------------------|
-----------------------------------------------------------------|
-----------------------------------------------------------------|
-----------------------------------------------------------------|
-0-0-0-0-0-0-0-0-0-0-0-0-0-0-0-0-3-3-3-3-3-3-3-3-8-8-8-8-8-8-8-8-|

                          its       several     for me
------------------------------------------------------------------------------------|
------------------------------------------------------------------------------------|
------------------------------------------------------------------------------------|
------------------------------------------------------------------------------------|
------------------------------------------------------------------------------------|
-0-0-0-0-0-0-0-0-0-0-0-0-0-0-0-0-3-3-3-3-3-3-3-3-10-10-10-10-10-10-10-10------------|

Chorus

    now        who wants to      live the soul's desire
------------------------------------------------------------------|
------------------------------------------------------------------|
-------------------------------------------------7-7-7-7-7-7-7-7--|
-------------------------------------------------7-7-7-7-7-7-7-7--|
-8-8-8-8-8-8-8-8-8-8-8-8-8-8-8-8-5-5-5-5-5-5-5-5-5-5-5-5-5-5-5-5--|
-8-8-8-8-8-8-8-8-8-8-8-8-8-8-8-8-5-5-5-5-5-5-5-5------------------|

   way         down were          born to        realize
------------------------------------------------------------------|
------------------------------------------------------------------|
-------------------------------------------------7-7-7-7-7-7-7-7--|
-------------------------------------------------7-7-7-7-7-7-7-7--|
-8-8-8-8-8-8-8-8-8-8-8-8-8-8-8-8-5-5-5-5-5-5-5-5-5-5-5-5-5-5-5-5--|
-8-8-8-8-8-8-8-8-8-8-8-8-8-8-8-8-5-5-5-5-5-5-5-5------------------|

   one           sobering         thought was    forced upon
------------------------------------------------------------------|
------------------------------------------------------------------|
-------------------------------------------------7-7-7-7-7-7-7-7--|
-------------------------------------------------7-7-7-7-7-7-7-7--|
-8-8-8-8-8-8-8-8-8-8-8-8-8-8-8-8-5-5-5-5-5-5-5-5-5-5-5-5-5-5-5-5--|
-8-8-8-8-8-8-8-8-8-8-8-8-8-8-8-8-5-5-5-5-5-5-5-5------------------|

       we shall  know                            we'll know
-------------------------------------------------------------------------|
-------------------------------------------------------------------------|
-------------------------------------------------------------------------|
-------------------------------------------------------------------------|
-8-8-8-8-8-8-8-8-8-8-8-8-8-8-8-8-5-5-5-5-5-5-5-5-10-10-10-10-10-10-10-10-|
-8-8-8-8-8-8-8-8-8-8-8-8-8-8-8-8-5-5-5-5-5-5-5-5-10-10-10-10-10-10-10-10-|

preverse

----------------------------------------------------------------------------------|
----------------------------------------------------------------------------------|
----------------------------------------------------------------------------------|
----------------------------------------------------------------------------------|
--8-7-5-7-0-0-10-8-7-8-0-8-10-8-7-5-7-0-0--8-7-5-7-0-8-10-8-7-5-7-0-0-8-7-5-7-0-8-|
--8-7-5-7-0-0-10-8-7-8-0-8-10-8-7-5-7-0-0--8-7-5-7-0-8-10-8-7-5-7-0-0-8-7-5-7-0-8-|

-------------------------------------------------------------|
-------------------------------------------------------------|
-------------------------------------------------------------|
-------------------------------------------------------------|
-10-8-7-5-7-0-0-10-8-8-8-------------------------------------|
-10-8-7-5-7-0-0-10-8-8-8-------------------------------------|

verse


                        these      slivers    that warn our feet
-----------------------------------------------------------------|
-----------------------------------------------------------------|
-----------------------------------------------------------------|
-----------------------------------------------------------------|
-----------------------------------------------------------------|
-0-0-0-0-0-0-0-0-0-0-0-0-0-0-0-0-3-3-3-3-3-3-3-3-8-8-8-8-8-8-8-8-|

                         reminders   joining     us
------------------------------------------------------------------------------------|
------------------------------------------------------------------------------------|
------------------------------------------------------------------------------------|
------------------------------------------------------------------------------------|
------------------------------------------------------------------------------------|
-0-0-0-0-0-0-0-0-0-0-0-0-0-0-0-0-3-3-3-3-3-3-3-3-10-10-10-10-10-10-10-10------------|

                        to the rest all the rest the worst is yet to come
-----------------------------------------------------------------|
-----------------------------------------------------------------|
-----------------------------------------------------------------|
-----------------------------------------------------------------|
-----------------------------------------------------------------|
-0-0-0-0-0-0-0-0-0-0-0-0-0-0-0-0-3-3-3-3-3-3-3-3-8-8-8-8-8-8-8-8-|

                        to the rest all the best the best is yet to come
------------------------------------------------------------------------------------|
------------------------------------------------------------------------------------|
------------------------------------------------------------------------------------|
------------------------------------------------------------------------------------|
------------------------------------------------------------------------------------|
-0-0-0-0-0-0-0-0-0-0-0-0-0-0-0-0-3-3-3-3-3-3-3-3-10-10-10-10-10-10-10-10------------|


Chorus

    now        who wants to      live the soul's desire
------------------------------------------------------------------|
------------------------------------------------------------------|
-------------------------------------------------7-7-7-7-7-7-7-7--|
-------------------------------------------------7-7-7-7-7-7-7-7--|
-8-8-8-8-8-8-8-8-8-8-8-8-8-8-8-8-5-5-5-5-5-5-5-5-5-5-5-5-5-5-5-5--|
-8-8-8-8-8-8-8-8-8-8-8-8-8-8-8-8-5-5-5-5-5-5-5-5------------------|

   way         down were          born to        realize
------------------------------------------------------------------|
------------------------------------------------------------------|
-------------------------------------------------7-7-7-7-7-7-7-7--|
-------------------------------------------------7-7-7-7-7-7-7-7--|
-8-8-8-8-8-8-8-8-8-8-8-8-8-8-8-8-5-5-5-5-5-5-5-5-5-5-5-5-5-5-5-5--|
-8-8-8-8-8-8-8-8-8-8-8-8-8-8-8-8-5-5-5-5-5-5-5-5------------------|

   one           sobering         thought was    forced upon
------------------------------------------------------------------|
------------------------------------------------------------------|
-------------------------------------------------7-7-7-7-7-7-7-7--|
-------------------------------------------------7-7-7-7-7-7-7-7--|
-8-8-8-8-8-8-8-8-8-8-8-8-8-8-8-8-5-5-5-5-5-5-5-5-5-5-5-5-5-5-5-5--|
-8-8-8-8-8-8-8-8-8-8-8-8-8-8-8-8-5-5-5-5-5-5-5-5------------------|

       we shall  know                            we'll know
-------------------------------------------------------------------------|
-------------------------------------------------------------------------|
-------------------------------------------------------------------------|
-------------------------------------------------------------------------|
-8-8-8-8-8-8-8-8-8-8-8-8-8-8-8-8-5-5-5-5-5-5-5-5-10-10-10-10-10-10-10-10-|
-8-8-8-8-8-8-8-8-8-8-8-8-8-8-8-8-5-5-5-5-5-5-5-5-10-10-10-10-10-10-10-10-|



Interlude

    a          silent           stare      brings the creeping
-------------------------------------------------------------------------|
-------------------------------------------------------------------------|
-12-12-12-12-12-12-12-12-12-12-12-12-12-12-12-12-15-15-15-15-15-15-15-15-|
-------------------------------------------------------------------------|
-10-10-10-10-10-10-10-10-10-10-10-10-10-10-10-10-13-13-13-13-13-13-13-13-|
-------------------------------------------------------------------------|


    clone                  won't        feel     you    walking   in
--------------------------------------------------------------------------|
--------------------------------------------------------------------------|
-14-14-14-14-14-14-14-14--12-12-12-12-12-12-12-12-12-12-12-12-12-12-12-12-|
--------------------------------------------------------------------------|
-12-12-12-12-12-12-12-12--10-10-10-10-10-10-10-10-10-10-10-10-10-10-10-10-|
--------------------------------------------------------------------------|



  but     feel       you    walking   out
-------------------------------------------------------------|
-------------------------------------------------------------|
-15-15-15-15-15-15-15-15-14-14-14-14-17-17-17-17-------------|
-------------------------------------------------------------|
-13-13-13-13-13-13-13-13-12-12-12-12-15-15-15-15-------------|
-------------------------------------------------------------|

 your          silent      stare   brings      us         closer
-------------------------------------------------------------------------|
-------------------------------------------------------------------------|
-12-12-12-12-12-12-12-12-12-12-12-12-12-12-12-12-15-15-15-15-15-15-15-15-|
-------------------------------------------------------------------------|
-10-10-10-10-10-10-10-10-10-10-10-10-10-10-10-10-13-13-13-13-13-13-13-13-|
-------------------------------------------------------------------------|

 still
-------------------------------------------------------------|
-------------------------------------------------------------|
-14-14-14-14-14-14-14-14-------------------------------------|
-------------------------------------------------------------|
-12-12-12-12-12-12-12-12-------------------------------------|
-------------------------------------------------------------|

   and         all          her           wants          keep          biting in
--------------------------------------------------------------------------------|
--------------------------------------------------------------------------------|
-12-12-12-12-12-12-12-12-12-12-12-12-12-12-12-12-10-10-10-10-10-10-10-10--------|
--------------------------------------------------------------------------------|
-10-10-10-10-10-10-10-10-10-10-10-10-10-10-10-10-8--8--8--8--8--8--8--8--3-5-0--|
-------------------------------------------------------------------------3-5-0--|

solo

------------------------------------------------------------------------------|
-----13-------------------------------------13--------------------------------|
-----------14-----14-----12-------10--------------14-----14-----12-------10---|
-/12----12----12-----10-----10--8----8--/12----12----12-----10-----10--8----8-|
------------------------------------------------------------------------------|
------------------------------------------------------------------------------|


-------17----------17----------17----------17-------------------------------------|
----18----18----18----18----18----18----18----18-18-18-18-18-18-18-18-18-18-18-18-|
-19----------19----------19----------19-------------------------------------------|
----------------------------------------------------------------------------------|
----------------------------------------------------------------------------------|
----------------------------------------------------------------------------------|


-------17----------17----------17----------17--------------------------------------|
----18----18----18----18----18----18----18----18-18-18-18-18-18-18-18-18-18-18-18\-|
-19----------19----------19----------19--------------------------------------------|
-----------------------------------------------------------------------------------|
-----------------------------------------------------------------------------------|
-----------------------------------------------------------------------------------|

Chorus

    now        who wants to      live the soul's desire
------------------------------------------------------------------|
------------------------------------------------------------------|
-------------------------------------------------7-7-7-7-7-7-7-7--|
-------------------------------------------------7-7-7-7-7-7-7-7--|
-8-8-8-8-8-8-8-8-8-8-8-8-8-8-8-8-5-5-5-5-5-5-5-5-5-5-5-5-5-5-5-5--|
-8-8-8-8-8-8-8-8-8-8-8-8-8-8-8-8-5-5-5-5-5-5-5-5------------------|

   way         down were          born to        realize
------------------------------------------------------------------|
------------------------------------------------------------------|
-------------------------------------------------7-7-7-7-7-7-7-7--|
-------------------------------------------------7-7-7-7-7-7-7-7--|
-8-8-8-8-8-8-8-8-8-8-8-8-8-8-8-8-5-5-5-5-5-5-5-5-5-5-5-5-5-5-5-5--|
-8-8-8-8-8-8-8-8-8-8-8-8-8-8-8-8-5-5-5-5-5-5-5-5------------------|

   one           sobering         thought was    forced upon
------------------------------------------------------------------|
------------------------------------------------------------------|
-------------------------------------------------7-7-7-7-7-7-7-7--|
-------------------------------------------------7-7-7-7-7-7-7-7--|
-8-8-8-8-8-8-8-8-8-8-8-8-8-8-8-8-5-5-5-5-5-5-5-5-5-5-5-5-5-5-5-5--|
-8-8-8-8-8-8-8-8-8-8-8-8-8-8-8-8-5-5-5-5-5-5-5-5------------------|

       we shall  know                            we'll know
-------------------------------------------------------------------------|
-------------------------------------------------------------------------|
-------------------------------------------------------------------------|
-------------------------------------------------------------------------|
-8-8-8-8-8-8-8-8-8-8-8-8-8-8-8-8-5-5-5-5-5-5-5-5-10-10-10-10-10-10-10-10-|
-8-8-8-8-8-8-8-8-8-8-8-8-8-8-8-8-5-5-5-5-5-5-5-5-10-10-10-10-10-10-10-10-|

Outro

first do those harmonics from the intro again then


----------------------------------------------------------------------------------|
----------------------------------------------------------------------------------|
----------------------------------------------------------------------------------|
----------------------------------------------------------------------------------|
--8-7-5-7-0-0-10-8-7-8-0-8-10-8-7-5-7-0-0--8-7-5-7-0-8-10-8-7-5-7-0-0-8-7-5-7-0-8-|
--8-7-5-7-0-0-10-8-7-8-0-8-10-8-7-5-7-0-0--8-7-5-7-0-8-10-8-7-5-7-0-0-8-7-5-7-0-8-|

-------------------------------------------------------------|
-------------------------------------------------------------|
-------------------------------------------------------------|
--------------------------0----------------------------------|
-10-8-7-5-7-0-0-10-8-8-8--0----------------------------------|
-10-8-7-5-7-0-0-10-8-8-8--0----------------------------------|
comments
We did not receive enough feedback on this tab! Please rate:
print report bad tab
1 2 3 4 5
I want to post or [tab]
guest
You may want to rate the tab now too:
select rating
Please do not post tabs as comments. Select "correction" instead!