Oops, an error
Loading. Please wait.

Mexican Sun tab

version 2
version 2

Whole song

Interactive

6,208 views 18 this week
no commentswrite comment
1 2 3 4 5
x 7
add to favorites
×
Save as Personal and add changes to this tab that will be seen only by you. Learn more ›
×
You can save this tab as Personal to edit and correct it or add notes. All changes will be seen only by you. Learn more »
launch autoscroll
font size
0
reset
how to read this tab
guitar tuner
edit
Autoscroll
slow
fast
+/-
esc
set tempo
stop
song: Mexican Sun
artist: CheVelle
CD:Sci-Fi Crimes
Label: Epic
TAbbed by: MetalSLayer09

drop b

intro
[------------------------------------[
[------------------------------------[
[------------------------------------[
[------------------------------------[
[------------------------------------[
[-5-5-5--7--7--7--8--8--8-10-10-10---[

[------------------------------------[
[------------------------------------[
[------------------------------------[
[-5-5-5-7--7--7--8--8--8-10-10-10----[
[-5-5-5-7--7--7--8--8--8-10-10-10----[
[-5-5-5-7--7--7--8--8--8-10-10-10----[
[                                    [
[------------------------------------[
[-8-8-8-10-10-10-11-11-11-13-13-13---[
[------------------------------------[
[-5-5-5-7--7--7--8--8--8--10-10-10---[
[------------------------------------[
[------------------------------------[

verse

[-------------------------------------------------|
[-------------------------------------------------|
[---------------------12-----------------10-------|
[----------------12---------12------10--------10--|
[-10-8-7-6-10-10----10---10-----8-8----8----8-----|
[-------------------------------------------------|

----------------------------[
----------------------------[
---------9--------------8---[
-----9-------9------8-------[
-7-7---7---7----6-6---6---6-[
----------------------------[

prechorus

[--------------------------------------------------|
[-10-----10-----10--10-10--10----10----10--11-11---|
[--------------------------------------------------|
[-7p0-0--7p0-0--7p0-7--7---7p0-0-7p0-0-7p0-9--9----|
[--------------------------------------------------|
[--------------------------------------------------|

-------------------------------------------------[
-10-----10-----10--10-10--10----10-----10--------[
-------------------------------------------7-7-7-[
-7p0-0--7p0-0--7p0-7--7---7p0-0-7p0--0-7p0-0-0-0-[
-------------------------------------------------[
-------------------------------------------------[

chorus

[-----------------------------------------------------------------|
[-----------------------------------------------------------------|
[-----------------------------------------------------------------|
[-12-12-12-12-10-10-10-10-8-8-8-8/7-7-7-7-12-12-12-12-10-10-10-10-|
[-12-12-12-12-10-10-10-10-8-8-8-8/7-7-7-7-12-12-12-12-10-10-10-10-|
[-12-12-12-12-10-10-10-10-8-8-8-8/7-7-7-7-12-12-12-12-10-10-10-10-|

-----------------------------------------------------------------------------|
-----------------------------------------------------------------------------|
-----------------------------------------------------------------------------|
-3-3-3-3-5-5-5-5-12-12-12-12-12-12-10-10-10-10-10-10-3-3-3-3-3-3-5-5-5-5-5-5-|
-3-3-3-3-5-5-5-5-12-12-12-12-12-12-10-10-10-10-10-10-3-3-3-3-3-3-5-5-5-5-5-5-|
-3-3-3-3-5-5-5-5-12-12-12-12-12-12-10-10-10-10-10-10-3-3-3-3-3-3-5-5-5-5-5-5-|

------------------------------------------------------------[
------------------------------------------------------------[
------------------------------------------------------------[
-12-12-12-12-12-12-10-10-10-10-10-10-8-8-8-8-8-8/7-7-7-7-7--[
-12-12-12-12-12-12-10-10-10-10-10-10-8-8-8-8-8-8/7-7-7-7-7--[
-12-12-12-12-12-12-10-10-10-10-10-10-8-8-8-8-8-8/7-7-7-7-7--[

interlude
at the begining a guitar plays this

[-12----[
[-14b16-[
[-------[
[-------[
[-------[
[-------[

whilst another gtr plays

[--------------------------------------[
[--------------------------------------[
[--------------------------------------[
[--------------------------------------[
[-0--0-7-0-7-0-8-7--0--0-7-0-7-0-8-7---[
[-0--0-7-0-7-0-8-7--0--0-7-0-7-0-8-7---[


[--------------------------------------------------------------------------------[
[--------------------------------------------------------------------------------[
[--------------------------------------------------------------------------------[
[-8-8-8-8-8-8-8-8-8-7--8--8-8-8-8-8-8-8--8-7--0--0-7-0-7-0-8-7--0--0-7-0-7-0-8-7-[
[-8-8-8-8-8-8-8-8-8-7--8--8-8-8-8-8-8-8--8-7--0--0-7-0-7-0-8-7--0--0-7-0-7-0-8-7-[
[-8-8-8-8-8-8-8-8-8-7--8--8-8-8-8-8-8-8--8-7--0--0-7-0-7-0-8-7--0--0-7-0-7-0-8-7-[

and the last chorus has a part with string mutes in it

[------------------------------------------------------------------------[
[------------------------------------------------------------------------[
[------------------------------------------------------------------------[
[-12--12-12-12-12-xxx-10--10-10-10-10-xxx-3--3-3-3-3-xxx-5--5-5-5-5-xxx--[
[-12--12-12-12-12-xxx-10--10-10-10-10-xxx-3--3-3-3-3-xxx-5--5-5-5-5-xxx--[
[-12--12-12-12-12-xxx-10--10-10-10-10-xxx-3--3-3-3-3-xxx-5--5-5-5-5-xxx--[

lyrics

soon the stares catch
we begin to kill the calm as we
feed on the fascts let's give in
let's give in to give more

still on the knees
such a shame
the cat's up and run away
scratched at me first
then the boy
gonna panic for a little more
watch the tail boy
watch the tail

like to be feeling the sand
bring color
back to both my arms the sun
let it do damage like the said it
would if given chance
had to be shouting your voices
scheming devils
never make it through
hey, way to go lad
hey way to go (can't wait to go)

closing out all my tabs
tighten down the pitiful
leave you with a pen
write it down
or you know what you can do
with that
watch the tail boy
watch the tail

Let's let the panic bloom
could help us all end up in the
clear
then let the havoc choose
to shape us all, push us to invent
we can feed of shame all day
we could feed off shame all day

and thats all pete felt like writing guys, thanks for checking it out and ratings or
 comments are appreciated

            
            
Suggest correction
Creating personal tab
Creating personal tab
You can edit any tab online and save it as your Personal.

You can edit, replace or remove any tab part or add personal notes – all changes will be seen only by you.

Personal tabs can be accessed anytime from any device, even offline.
Learn more »
comments
print report bad tab
guest
You may want to rate the tab now too:
select rating
Wanna post a correction for this tab? Suggest correction