Oops, an error
Loading. Please wait.

Paint The Seconds tab

version 2
version 2

Whole song

Interactive

1,831 views 3 this week
1 commentread comment
1 2 3 4 5
1 last vote to show rating
add to favorites
×
Save as Personal and add changes to this tab that will be seen only by you. Learn more ›
×
You can save this tab as Personal to edit and correct it or add notes. All changes will be seen only by you. Learn more »
launch autoscroll
font size
0
reset
how to read this tab
guitar tuner
edit
Autoscroll
slow
fast
+/-
esc
set tempo
stop
A# f A# d# g c


intro/chorus (light distortion)
|------------------|         |-------------|
|------------------|         |-------------|
|-9----12-----7----|         |-5-----7-----|
|-7(x8)10(x5)-5(x5)|x3       |-3(x8)-5(x8)-|end the intro with this
|-7----10-----5----|         |-3-----5-----|
|-7----10-----5----|         |-3-----5-----|

verse

(light distortion)
|-----------------------------------|  |--------------------------| |---|
|-----------------------------------|  |--------------------------| |---|
|-----------------------------------|  |------9-7-7-------------  | |-5-|
|-----------------------------------|x4|------x-x-7-------------  | |-5-|
|-------77-55-00-333333-----------3-|  |------7-5-7-3(x6)--------3| |-5-|
|-777777----------------555555-xx---|  |-7(x6)-----------5(x6)xx--| |---|
  ........ .. .. ...... ......         .          .    .

Pre chorus (distortion)
|--------------------|-------------------------------------------------|
|--------------------|-------------------------------------------------|
|--------------------|-------------------------------------------------|
|-0h222222-3-2-------|-5555-0000---------------------------------------|
|-0h222222-3-2-------|-5555-0000---------------------------------------|
|-0h222222-3-2---(x3)|-5555-0000---------------------------------------|

chorus (distortion)

|------------------|         |-------------|
|------------------|         |-------------|
|-9----12-----7----|         |-5-----7-----|
|-7(x8)10(x5)-5(x5)|x3       |-3(x8)-5(x8)-|
|-7----10-----5----|         |-3-----5-----|
|-7----10-----5----|         |-3-----5-----|
verse (light distortion)
(light distortion)
|-----------------------------------|  |--------------------------| |---|
|-----------------------------------|  |--------------------------| |---|
|-----------------------------------|  |------9-7-7-------------  | |-5-|
|-----------------------------------|x4|------x-x-7-------------  | |-5-|
|-------77-55-00-333333-----------3-|  |------7-5-7-3(x6)--------3| |-5-|
|-777777----------------555555-xx---|  |-7(x6)-----------5(x6)xx--| |---|
  ........ .. .. ...... ......         .          .    .

Pre chorus (distortion)
|--------------------|-------------------------------------------------|
|--------------------|-------------------------------------------------|
|--------------------|-------------------------------------------------|
|-0h222222-3-2-------|-5555-0000---------------------------------------|
|-0h222222-3-2-------|-5555-0000---------------------------------------|
|-0h222222-3-2---(x3)|-5555-0000---------------------------------------|

chorus (distortion)

|------------------|         |-------------|
|------------------|         |-------------|
|-9----12-----7----|         |-5-----7-----|
|-7(x8)10(x5)-5(x5)|x3       |-3(x8)-5(x8)-|
|-7----10-----5----|         |-3-----5-----|
|-7----10-----5----|         |-3-----5-----|
solo (the solo isn't all right. i did it by ear so bear with me)
(echoing effect)
|----------------------------------------------------------|
|-13-13-13-13----------15~~12h13-13-13-13------------------|
|-------------16-14-----------------------16-14------------|
|-------------------14--------------------------14-13------|
|----------------------------------------------------15-14-|
|----------------------------------------------------------|
(distortion)
|-12----12----12-------------------------------------------------------|
|---13----13-----------------------------------------------------------|
|-----12----12---12-15-14~~--------------------------------------------|
|---------------------------14-17-17p15p14-15p14p12-14p12p10-12p10p9-7-|
|----------------------------------------------------------------------|
|----------------------------------------------------------------------|

(distortion)
|-12----12----12-13-12121212121212121212-1515151515151515151515~~-----|
|---13----13----------------------------------------------------------|
|-----12----12--------------------------------------------------------|
|---------------------------------------------------------------------|
|---------------------------------------------------------------------|
|---------------------------------------------------------------------|
chorus(x6)(start clean then distortion)

|------------------|         |-------------|
|------------------|         |-------------|
|-9----12-----7----|         |-5-----7-----|
|-7(x8)10(x5)-5(x5)|x3       |-3(x8)-5(x8)-|
|-7----10-----5----|         |-3-----5-----|
|-7----10-----5----|         |-3-----5-----|

outro

|-----------------------------------------------|
|-----------------------------------------------|
|-----------------------------------------------|
|-----------------------------------------------|
|---7-5-0-3-----7-5-0-3-----7-5-0-3-------------|
|-7---------5-7---------5-7---------5-3-5-7~~---|

            
            
Suggest correction
Creating personal tab
Creating personal tab
You can edit any tab online and save it as your Personal.

You can edit, replace or remove any tab part or add personal notes – all changes will be seen only by you.

Personal tabs can be accessed anytime from any device, even offline.
Learn more »
Give kudos to tab author, rate the tab!
1 2 3 4 5
comments
print report bad tab
1 comment total.
0 reply
Robman8908 10 Apr 20, 2008 09:08 PM

K. Solo looks like it should be.....

|-------------------------------------------------------------------|
|-12^-12^-12^-12^-12^v-------15~~13s12-12-12-12^v-------------------|
|----------------------14--------------------------14---------------|
|-------------------------15--------------------------15-14---------|
|----------------------------------------------------------15-14-12-|
|-------------------------------------------------------------------|

(distortion)
|-12----12----12----------------------------------------------------|
|---13----13--------------------------------------------------------|
|-----12----12---12-15-14~~-----------------------------------------|
|-------------------------14-17-17p15p14-15p14p12-14p12p10-12p10p9--|
|-------------------------------------------------------------------|
|-------------------------------------------------------------------|

(distortion)
|-12----12----12-13-12121212121212121212-1515151515151515151515~~--|
|---13----13-------------------------------------------------------|
|-----12----12-----------------------------------------------------|
|------------------------------------------------------------------|
|------------------------------------------------------------------|
|------------------------------------------------------------------|

Hope you agree... This is my first attempt at tabbing any part of any song... and I figured it'd be only appropriate to give you what I think is the correct solo to one of the first actual solos done by Pete Loeffler (Yeah... Chevelle = favorite band, hah)

but yeah, hope that helps!

guest
You may want to rate the tab now too:
select rating
Wanna post a correction for this tab? Suggest correction