Oops, an error
Loading. Please wait.

Panic Prone tab

version 2
version 2

Whole song

Interactive

4,125 views 3 this week
3 commentsread comments
1 2 3 4 5
x 3
add to favorites
×
Save as Personal and add changes to this tab that will be seen only by you. Learn more ›
×
You can save this tab as Personal to edit and correct it or add notes. All changes will be seen only by you. Learn more »
launch autoscroll
font size
0
reset
how to read this tab
guitar tuner
backing track
0:00
0:00
edit
Autoscroll
slow
fast
+/-
esc
set tempo
stop
I wrote this tab when I was 14, and I just modified it now (almost 10 years later) because it was admittedly
pretty erroneous.  Hopefully I've cleaned it up enough to where it's near perfect.  KEEP IN MIND that I tabbed
it in D-tuning because I wanted an ALTERNATE way of playing this song that didn't make me stretch my hand
across 5 frets like I had seen in a Drop-D tab, or have to tune my guitar down to Drop-A#.  This is a more
novice adaptation that likely only more advanced players will be able to tell the difference.

TUNING: D-tuning

NOTE TO NOVICE PLAYERS: This is written such that you can play it in standard tuning if you please.  D-tuning
is the same as standard tuning, only all of the strings are "shifted" a whole step down (thus D instead of E).
If you want to play along with the music, you'll have to tune it down to D-tuning.

/  slide up
\  slide down
h  hammer-on

Verse:

d|--------------------------------------------------|
A|--------------------------------------------------|
F|--------------------------------------------------|
C|--------------------------------------------------|
G|--3-3-3-3-3-3-3-3-3-3-3-3-3-3-3-3-3-3-3-3-3-3-3-3-|
D|-5-5-5-5-5-5-1-1-1-1-1-1-5-5-5-5-5-5-1-1-1-1-1-1--|

First Chorus:

d|--------------------------------------------------------------------------------------------------|
A|--------------------------------------------------------------------------------------------------|
F|--------------------------------------------------------------------------------------------------|
C|--------------------------7-7-7-7-7-7-7-7-7-5-5-5-3-3-3-3-3-3-3-3-3-3-3-3-5-5-5-5-5-5-5-5-5-6-6-6-|
G|--3-3-3-3-3-3-3-3-3-3-3-3-------------------------------------------------------------------------|
D|-3-3-3-3-3-3-3-3-3-3-3-3-5-5-5-5-5-5-5-5-5-3-3-3-1-1-1-1-1-1-1-1-1-1-1-1-3-3-3-3-3-3-3-3-3-4-4-4--|

Second Chorus:

d|--------------------------------------------------------------------------------------------------|
A|--------------------------------------------------------------------------------------------------|
F|--------------------------------------------------------------------------------------------------|
C|--------------------------7-7-7-7-7-7-7-7-7-5-5-5-3-3-3-3-3-3-3-3-3-3-3-3-7-7-7-7-7-7-7-7-7-5-5-5-|
G|--3-3-3-3-3-3-3-3-3-3-3-3-------------------------------------------------------------------------|
D|-3-3-3-3-3-3-3-3-3-3-3-3-5-5-5-5-5-5-5-5-5-3-3-3-1-1-1-1-1-1-1-1-1-1-1-1-5-5-5-5-5-5-5-5-5-3-3-3--|

d|--------------------------------------------------------------------------------------------------|
A|--------------------------------------------------------------------------------------------------|
F|--------------------------------------------------------------------------------------------------|
C|--------------------------7-7-7-7-7-7-7-7-7-5-5-5-3-3-3-3-3-3-3-3-3-3-3-3-5-5-5-5-5-5-5-5-5-6-6-6-|
G|--3-3-3-3-3-3-3-3-3-3-3-3-------------------------------------------------------------------------|
D|-3-3-3-3-3-3-3-3-3-3-3-3-5-5-5-5-5-5-5-5-5-3-3-3-1-1-1-1-1-1-1-1-1-1-1-1-3-3-3-3-3-3-3-3-3-4-4-4--|

Breakdown:

d|-----------7-----------------------7--------------------------------------------------------------|
A|--------------------------------------------------------------------------------------------------|
F|--------------------------------------------------------------------------------------------------|
C|-5/7-7-7---7-7---7-7-7-7-5/7-7-7---7-7---7-7-7-7-3-3-3-3---3-3---3-3-3-3-3-3-3-3---3-3---3-3-3-3--|
G|-5/7-7-7---7-7---7-7-7-7-5/7-7-7---7-7---7-7-7-7-3-3-3-3---3-3---3-3-3-3-3-3-3-3---3-3---3-3-3-3--|
D|-3/5-5-5---5-5---5-5-5-5-3/5-5-5---5-5---5-5-5-5-1-1-1-1---1-1---1-1-1-1-1-1-1-1---1-1---1-1-1-1--|

Alternate Breakdown:

d|-----------7-----------------------7--------------------------------------------------------------|
A|--------------------------------------------------------------------------------------------------|
F|--------------------------------------------------------------------------------------------------|
C|-5/7-7-7--(7)7---7-7-7-7-5/7-7-7--(7)7---7-7-7-7-3-3-3-3---3-3---3-3-3-3-3-3-3-3---3-3---3-3-3-3--|
G|-5/7-7-7--(7)7---7-7-7-7-5/7-7-7--(7)7---7-7-7-7-3-3-3-3---3-3---3-3-3-3-3-3-3-3---3-3---3-3-3-3--|
D|-3/5-5-5---0-5---5-5-5-5-3/5-5-5---0-5---5-5-5-5-1-1-1-1---1-1---1-1-1-1-1-1-1-1---1-1---1-1-1-1--|

Final Chorus:

d|--------------------------------------------------------------------------------------------------|
A|--------------------------------------------------------------------------------------------------|
F|-5-5-5-5-5-5-5-5-5-5-5-5-5-5-5-5-5-5-5-5-5-5-5-5--------------------------------------------------|
C|-5-5-5-5-5-5-5-5-5-5-5-5-5-5-5-5-5-5-5-5-5-5-5-5-7-7-7-7-7-7-7-7-7-7-7-7-7-7-7-7-7-7-5-5-5-5-5-5--|
G|-3-3-3-3-3-3-3-3-3-3-3-3-3-3-3-3-3-3-3-3-3-3-3-3-7-7-7-7-7-7-7-7-7-7-7-7-7-7-7-7-7-7-5-5-5-5-5-5--|
D|-3-3-3-3-3-3-3-3-3-3-3-3-3-3-3-3-3-3-3-3-3-3-3-3-5-5-5-5-5-5-5-5-5-5-5-5-5-5-5-5-5-5-3-3-3-3-3-3--|

d|--------------------------------------------------------------------------------------------------|
A|--------------------------------------------------------------------------------------------------|
F|--------------------------------------------------------------------------------------------------|
C|-3-3-3-3-3-3-3-3-3-3-3-3-3-3-3-3-3-3-3-3-3-3-3-3-7-7-7-7-7-7-7-7-7-7-7-7-7-7-7-7-7-7-5-5-5-5-5-5--|
G|-3-3-3-3-3-3-3-3-3-3-3-3-3-3-3-3-3-3-3-3-3-3-3-3-7-7-7-7-7-7-7-7-7-7-7-7-7-7-7-7-7-7-5-5-5-5-5-5--|
D|-1-1-1-1-1-1-1-1-1-1-1-1-1-1-1-1-1-1-1-1-1-1-1-1-5-5-5-5-5-5-5-5-5-5-5-5-5-5-5-5-5-5-3-3-3-3-3-3--|

d|--------------------------------------------------------------------------------------------------|
A|--------------------------------------------------------------------------------------------------|
F|-5-5-5-5-5-5-5-5-5-5-5-5-5-5-5-5-5-5-5-5-5-5-5-5--------------------------------------------------|
C|-5-5-5-5-5-5-5-5-5-5-5-5-5-5-5-5-5-5-5-5-5-5-5-5-7-7-7-7-7-7-7-7-7-7-7-7-7-7-7-7-7-7-5-5-5-5-5-5--|
G|-3-3-3-3-3-3-3-3-3-3-3-3-3-3-3-3-3-3-3-3-3-3-3-3-7-7-7-7-7-7-7-7-7-7-7-7-7-7-7-7-7-7-5-5-5-5-5-5--|
D|-3-3-3-3-3-3-3-3-3-3-3-3-3-3-3-3-3-3-3-3-3-3-3-3-5-5-5-5-5-5-5-5-5-5-5-5-5-5-5-5-5-5-3-3-3-3-3-3--|

d|--------------------------------------------------------------------------------------------------|
A|--------------------------------------------------------------------------------------------------|
F|--------------------------------------------------------------------------------------------------|
C|-3-3-3-3-3-3-3-3-3-3-3-3-3-3-3-3-3-3-3-3-3-3-3-3-5-5-5-5-5-5-5-5-5-5-5-5-5-5-5-5-5-5-6-6-6-6-6-6--|
G|-3-3-3-3-3-3-3-3-3-3-3-3-3-3-3-3-3-3-3-3-3-3-3-3-5-5-5-5-5-5-5-5-5-5-5-5-5-5-5-5-5-5-6-6-6-6-6-6--|
D|-1-1-1-1-1-1-1-1-1-1-1-1-1-1-1-1-1-1-1-1-1-1-1-1-3-3-3-3-3-3-3-3-3-3-3-3-3-3-3-3-3-3-4-4-4-4-4-4--|


Here’s the Order:
Verse x4
First Chorus
Verse x4
Second Chorus
Breakdown OR Alternate Breakdown (whichever you like better)
Final Chorus
Verse x2

Again, this tab is intended for a close adaptation that a novice player can learn with little/no re-tuning.
I provided an Alternate Breakdown in case someone fancies playing it that way better (that's how I like to
play it because it kind of fills in for the bass, which the bass part is a huge component of this song)
Suggest correction
Creating personal tab
Creating personal tab
You can edit any tab online and save it as your Personal.

You can edit, replace or remove any tab part or add personal notes – all changes will be seen only by you.

Personal tabs can be accessed anytime from any device, even offline.
Learn more »
Give kudos to tab author, rate the tab!
1 2 3 4 5
comments
print report bad tab
3 comments total.
0 reply
stoven217 10 Dec 11, 2015 06:39 PM

Not played in drop D. All but intro is clearly wrong, but even the intro is wrong.

0 reply
gabopk 20 Mar 28, 2017 04:51 PM

Pretty good actually.. I play on Eb so just moved everything half step down and fit perfectly.. Thank you...

guest
You may want to rate the tab now too:
select rating
Wanna post a correction for this tab? Suggest correction