Oops, an error
Loading. Please wait.

Saferwaters bass

version 1
version 1

Whole song

Interactive

2,185 views 1 this week
1 commentread comment
1 2 3 4 5
x 6
add to favorites
×
Save as Personal and add changes to this tab that will be seen only by you. Learn more ›
×
You can save this tab as Personal to edit and correct it or add notes. All changes will be seen only by you. Learn more »
launch autoscroll
font size
0
reset
guitar tuner
edit
Autoscroll
slow
fast
+/-
esc
set tempo
stop
Author
Difficulty
I was surprised to see that this song was still not tabbed for the bass yet. Heres my 
of it for you guys. Any questions
or comments, please leave them.

NOTICE: THIS IS PLAYED ON A 4 STRING BASS, DUE TO THE FACT THAT DEAN PLAYS A FOUR 
SO YES, ALL CHEVELLE SONGS
CAN BE PLAYED ON A FOUR STRING BASS, SO DONT LEAVE RETARDED "well he plays on a 5 string 
COMMENTS, BECAUSE
DEAN DOES NOT, JOE DOES.


INTRO
  |----------------------------------------------------------------------------------|
  |----------------------------------------------------------------------------------|
Eb|------------------0--------0-----7-5-7-0----------------0--------0-----7-5-7-0----|
Bb|--33333--0-33333----00000----0000-------33333--0-33333----00000----0000-----------|

BRIDGE INTO VERSE      VERSE
  |-------------------||-----------------------------------------------------|
  |-------------------||-----------------------------------------------------|
Eb|-------------------||-----------------------------------------------------|
Bb|--3~------0~---7~--||----3~--3-3~---0~---7~--------3~--3-3~-/-12~---7~----|
  (start of every
                 Verse)

CHORUS
  |----------------------------------|
  |----------------------------------|
Eb|----------------------------------|
Bb|--3(x16)--7(x16)--0(x16)--8(x16)--|


SOLO
  |--------------------------------------------------------------|
  |--------------------------------------------------------------|
Eb|-----------------------7--7--7--7--7--7------55-55-55-55-55---|
Bb|--3(x16)--5(x16)--0000--00-00-00-00-00-00---7--7--7--7--7--7--|


INTRO
BRIDGE INTO VERSE
VERSE x2
INTRO
CHORUS x2
BRIDGE INTO VERSE
VERSE x2
INTRO
CHORUS x2
SOLO x2
{REST}
CHORUS *start halfway through it at the 0's*
END ON 3

            
            
Suggest correction
Creating personal tab
Creating personal tab
You can edit any tab online and save it as your Personal.

You can edit, replace or remove any tab part or add personal notes – all changes will be seen only by you.

Personal tabs can be accessed anytime from any device, even offline.
Learn more »
comments
print report bad tab
1 comment total.
0 reply
EvilAngel93 293 Jan 14, 2009 01:40 PM

well he plays on a 5 string

jk

guest
You may want to rate the tab now too:
select rating
Wanna post a correction for this tab? Suggest correction