Oops, an error
Loading. Please wait.

Same Old Trip bass

version 1
version 1

Whole song

Interactive

1,008 views 1 this week
2 commentsread comments
1 2 3 4 5
1 last vote to show rating
add to favorites
×
Save as Personal and add changes to this tab that will be seen only by you. Learn more ›
×
You can save this tab as Personal to edit and correct it or add notes. All changes will be seen only by you. Learn more »
launch autoscroll
font size
0
reset
guitar tuner
edit
Autoscroll
slow
fast
+/-
esc
set tempo
stop
-------------------------------------------------------------------------------
                            Same Old Trip - Chevelle
-------------------------------------------------------------------------------

Tabbed By : HoodsTheBass
e-mail: kgalaxiaknight@aol.com

Tuning: Drop C (CGCF)

Wait until 0:11
F|--------------------|
C|--------------------|
G|3333333-55555555----|
C|----------------2~--|

0:19 Repeat 7 times
F|----------------------|
C|----------------------|
G|-----3---------2------|
C|2202--20--2202--20----|

Chorus 0:49 (10's not ones and zeros)
F|------------------------------------------------------------|
C|------------------------------------------------------------|
G|3333333355555555777777771010101010101010-333333335555555----|
C-------------------------------------------------------------|

1:02
F|---------------------------------------------------------------------------|
C|---------------------------------------------------------------------------|
G|-----3---------2--------3--------2--------3-------2--------3-----------3---|
C|2202--20-2202---20-2202--20-2202--20-2202--20-2202--20-2202--20-2202-02----|

1:18
G|---------------------------------------|
C|---------------------------------------|
F|-----3----------3-------3-----------3--|
C|2202--20-2202-02--2202---20-2202--02---|

1:26
F|------------------------------|
C|------------------------------|
G|-----3-------------3----------|
C|2202---2202---2202---2202-----|

2nd Chorus 1:35
F|---------------------------------------------------------|
C|---------------------------------------------------------|
G|3333333355555555777777771010101010101010--(repeat twice)-|
C|---------------------------------------------------------|

F|------------------|
C|------------------|
G|333333335555555---|
C|------------------|

Bridge 1:56
F|-------------------------------------------------------------------|
C|-------------------------------------------------------------------|
G|-----------33333555-------------33333555-------------33333/99\3----|
C|2202-020-------------2202-020-------------2202-020-----------------|

F|-------------------------|
C|-------------------------|
G|-----------33333---5--3--|
C|2202-020-----------------|

2:13
F|---------------------------------------------------------------------------|
C|---------------------------------------------------------------------------|
G|------3-----------------3-----------------3-----------------3------5555\---|
C|2202---2202-------2202---2202--000--2202---2202-------2202---2202----------|

Outro 2:30
F|------------------------------------------------------------------|
C|------------------------------------------------------------------|
G|3333333355555555777777771010101010101010--(Repeat three times)----|
C|------------------------------------------------------------------|

F|----------------------------------------------------|
C|----------------------------------------------------|
G|333333335555555-------------------------------------|
C|------------------2~/10-12-2------------------------|

| /  slide up
| \  slide down
| h  hammer-on
| p  pull-off
| ~  vibrato
| +  harmonic
| x  Mute note
===============================================================================
If I made any mistakes, contact me by my e-mail.

            
            
Suggest correction
Creating personal tab
Creating personal tab
You can edit any tab online and save it as your Personal.

You can edit, replace or remove any tab part or add personal notes – all changes will be seen only by you.

Personal tabs can be accessed anytime from any device, even offline.
Learn more »
Give kudos to tab author, rate the tab!
1 2 3 4 5
comments
print report bad tab
2 comments total.
+1 reply
QwaQwaFruit 240 Mar 17, 2012 01:32 PM

I find that it sounds closer if the 2's on the G string are replaced by 1's, like this:

F|---------------------------------------------------------------------------|
C|---------------------------------------------------------------------------|
G|-----3---------1--------3--------1--------3-------1--------3-----------3---|
C|2202--20-2202---20-2202--20-2202--20-2202--20-2202--20-2202--20-2202-02----|

+1 reply
HoodsTheBass 52 Mar 23, 2012 02:02 PM

I tested it out. It do sound better with '1' instead of '2'

guest
You may want to rate the tab now too:
select rating
Wanna post a correction for this tab? Suggest correction