Oops, an error
Loading. Please wait.

Sleep Apnea tab

version 2
version 2

Whole song

Interactive

34,741 views 24 this week
4 commentsread comments
1 2 3 4 5
x 18
add to favorites
×
Save as Personal and add changes to this tab that will be seen only by you. Learn more ›
×
You can save this tab as Personal to edit and correct it or add notes. All changes will be seen only by you. Learn more »
launch autoscroll
font size
0
reset
how to read this tab
guitar tuner
edit
Autoscroll
slow
fast
+/-
esc
set tempo
stop
Chevelle - Sleep Apnea
Track #1 - Sci-Fi Crimes

Just saw them play last night at Bayfest in Mobile, AL.....got this from the concert and 
youtube videos.

INTRO - PART 1
   1x
eb|------------------------------------------------------------|
Bb|------------------------------------------------------------|
Gb|------------------------------------------------------------|
Db|------------------------------------------------------------|
Ab|------------------------------------------------------------|
Db|10-0-0-12-0-0-10-0-0-15-0-0-10-0-0-12-0-0-10-0-0-15-0-0-10--|

INTRO - PART 2
   8x
eb|-----------------------------|
Bb|-----------------------------|
Gb|-----------------------------|
Db|-----------------------------|
Ab|-----------------------------|
Db|0-00-12-15-12-0-00-10-13-10--|

VERSE
   12x - Turn down volume on guitar about 1/2 way
eb|-----------------------------|
Bb|-----------------------------|
Gb|-----------------------------|
Db|-----------------------------|
Ab|-----------------------------|
Db|0-00-12-15-12-0-00-10-13-10--|

PRECHORUS
   1x
eb|--------|
Bb|--------|
Gb|--------|
Db|-10-----|
Ab|-10-----|
Db|-10-----|

CHORUS
   2x
eb|---------------------------------------|
Bb|---------------------------------------|
Gb|---------------------------------------|
Db|-7-------8-------3-------10------------|
Ab|-5-(8x)--8-(8x)--3-(8x)--10-(8x)--0~---|
Db|-0-------8-------3-------10-------0~---|
                                     ^ - Play this 1x the 2nd time around
VERSE

CHORUS
eb|-----------------------------------|
Bb|-----------------------------------|
Gb|-----------------------------------|
Db|-7-------8-------3-------10--------|
Ab|-5-(8x)--8-(8x)--3-(8x)--10-(8x)---|
Db|-0-------8-------3-------10--------|

eb|---------------------------------------|
Bb|---------------------------------------|
Gb|---------------------------------------|
Db|-7-------8-------3-------10-------x-14-|
Ab|-5-(8x)--8-(8x)--3-(8x)--10-(8x)--X-14-|
Db|-0-------8-------3-------10-------X-14-|

BRIDGE - Part 1
  3x
eb|----------------------------------------------------|
Bb|----------------------------------------------------|
Gb|----------------------------------------------------|
Db|-----------------------------------------------5-8--|
Ab|-----------------------------------------------5-8--|
Db|0-00-12-15-12-0-00-10-13-10-0-00-12-15-12-0-00-5-8--|

BRIDGE - Part 2
eb|----------------------------------------------------------------------|
Bb|----------------------------------------------------------------------|
Gb|----------------------------------------------------------------------|
Db|-----------------------------------------------5-7-8-7-5-7-3-10-00-00-|
Ab|-----------------------------------------------5-7-8-7-5-7-3-10-00-00-|
Db|0-00-12-15-12-0-00-10-13-10-0-00-12-15-12-0-00-5-7-8-7-5-7-3-10-00-00-|

eb|-----------|
Bb|-----------|
Gb|-----------|
Db|-10-00-00--|
Ab|-10-00-00--|
Db|-10-00-00--|

   2x
eb|--------------------------------|
Bb|--------------------------------|
Gb|--------------------------------|
Db|-8-7-5-7-3-10-------10----------|
Ab|-8-7-5-7-3-10-00-00-10-00-00----|
Db|-8-7-5-7-3-10-00-00-10-00-00----|

eb|-----------------------------------------------------------------------|
Bb|-----------------------------------------------------------------------|
Gb|-----------------------------------------------------------------------|
Db|-8-7-5-7-3-10-00-00-12-00-00-10-00-00-15-00-00-10-00-00-12-00-00-10-00-|
Ab|-8-7-5-7-3-10-00-00-12-00-00-10-00-00-15-00-00-10-00-00-12-00-00-10-00-|
Db|-8-7-5-7-3-10-00-00-12-00-00-10-00-00-15-00-00-10-00-00-12-00-00-10-00-|


eb|----------------------------|
Bb|----------------------------|
Gb|----------------------------|
Db|-00-15-00-00-10---(BREAK)---|
Ab|-00-15-00-00-10-------------|
Db|-00-15-00-00-10-------------|

CHORUS - 2X

BRIDGE - PART 1 AGAIN
   3X
eb|----------------------------------------------------|
Bb|----------------------------------------------------|
Gb|----------------------------------------------------|
Db|-----------------------------------------------5-8--|
Ab|-----------------------------------------------5-8--|
Db|0-00-12-15-12-0-00-10-13-10-0-00-12-15-12-0-00-5-8--|

   1X
eb|-----------------------------------------------------|
Bb|-----------------------------------------------------|
Gb|-----------------------------------------------------|
Db|-----------------------------------------------5-8-0-|
Ab|-----------------------------------------------5-8-0-|
Db|0-00-12-15-12-0-00-10-13-10-0-00-12-15-12-0-00-5-8-0-|

            
            
Suggest correction
Creating personal tab
Creating personal tab
You can edit any tab online and save it as your Personal.

You can edit, replace or remove any tab part or add personal notes – all changes will be seen only by you.

Personal tabs can be accessed anytime from any device, even offline.
Learn more »
comments
print report bad tab
4 comments total. Showing first comments.
+4 reply
Re-educated 35 Oct 05, 2009 01:02 PM

The Intro/Verse should be:

eb|-----------------------------|
Bb|-----------------------------|
Gb|-----------------------------|
Db|-----------------------------|
Ab|-----------------------------|
Db|-0-00-12-15-12-0-00-12-13-12-|

0 reply
metalslayer09 749 Oct 05, 2009 01:58 PM

well this is awkward... I just put up basically the same tab yesterday on this site so by tomorrow we'll have to almost identical tabs up...

0 reply
toddsolano 10 Oct 22, 2009 09:03 PM

dude i love this song and it sounds to me dead on good job man i loved playing it i was gonna learn it by ear you saved me some trouble lol

guest
You may want to rate the tab now too:
select rating
Wanna post a correction for this tab? Suggest correction