Oops, an error
Loading. Please wait.

Straight Jacket Fashion tab

version 1
version 1

Whole song

Interactive

11,179 views 6 this week
10 commentsread comments
1 2 3 4 5
x 3
add to favorites
×
Save as Personal and add changes to this tab that will be seen only by you. Learn more ›
×
You can save this tab as Personal to edit and correct it or add notes. All changes will be seen only by you. Learn more »
launch autoscroll
font size
0
reset
how to read this tab
guitar tuner
edit
Autoscroll
slow
fast
+/-
esc
set tempo
stop
Author
Difficulty
C-----------------------------------------------------------------------|
G-----------------------------------------------------------------------|
D#---------------------------------------121212121212-----------777777--|
A#----7777777777777777---1010101010101010101010101010---55555555555555--|
F-----------------------------------------------------------------------|
A#----------------------------------------------------------------------|

C--------------------------------------------------------------------|
G--------------------------------------------------------------------|
D#-------------------------------------------------------------------|
A#---7----10101010-12121212-9999--10-9-7--10101010-12121212-9999-9---|
F----7----10101010-12121212-9999--10-9-7--10101010-12121212-9999-----|
A#---7----10101010-12121212-9999--10-9-7--10101010-12121212-9999-----|

C--------------------------------------------------------------------|
G--------------------------------------------------------------------|
D#-------------------------------------------------------------------|
A#-------10101010-12121212-9999--10-9-7--10101010-14141414-7777--7\\\|
F--------10101010-12121212-9999--10-9-7--10101010-14141414-7777--7\\\|
A#-------10101010-12121212-9999--10-9-7--10101010-14141414-7777--7\\\|

C--------------------------------------------------------------------|
G--------------------------------------------------------------------|
D#-------------------------------------------------------------------|
A#-------------------------------------------------------------------|
F-------0h3--------5p3-(x15)-5p3---------5p3---------5p3-------------|
A#----------0000(pm)--------------0000(pm)----0000(pm)----0000(pm)---|

C--------------------------------------------------------------------|
G--------------------------------------------------------------------|
D#-------------------------------------------------------------------|
A#-------10101010--12121212--9999--10-9-7----------------------------|
F--------10101010--12121212--9999--10-9-7----------------------------|
A#-------10101010--12121212--9999--10-9-7----------------------------|

	(pre-chorus)
C--------------------------------------------------------------------|
G--------------------------------------------------------------------|
D#-------------------------------------------------------------------|
A#-------------------------------------------------------------------|
F--------------------------------------------------------------------|
A#------7777777777777777--1010101010101010-\12-5555555555555555-(pms)|

C--------------------------------------------------------------------|
G--------------------------------------------------------------------|
D#--------------99999999---------------------------------------------|
A#-----7777777777777777----10101010--10-12-5-------------------------|
F--------------------------10101010--10-12-5-------------------------|
A#-------------------------10101010--10-12-5-------------------------|
	(chorus)
C--------------------------------------------------------------------|
G--------------------------------------------------------------------|
D#-------------------------------------------------------------------|
A#-----7--10--12-5------7---10101010-12121212-9999-7777--------------|
F------7--10--12-5------7---10101010-12121212-9999-7777--------------|
A#-----7--10--12-5------7---10101010-12121212-9999-7777--------------|

	back to verse

	then chorus followed by this

C--------------------------------------------------------------------|
G--------------------------------------------------------------------|
D#-------------------------------------------------------------------|
A#----10101010-14141414-7777-7\\\------------------------------------|
F-----10101010-14141414-7777-7\\\------------------------------------|
A#----10101010-14141414-7777-7\\\------------------------------------|

     Interlude

C-----------------------------------------------------------------------|
G-----------------------------------------------------------------------|
D#----------------------------------------------------------------------|
A#----55555555555555555------------------33-2222222222222222------(x4---|
F----------------------3333333333333333---------------------000000000---|
A#----------------------------------------------------------------------|

C--------------------------------------------------------------------|
G--------------------------------------------------------------------|
D#-------------------------------------------------------------------|
A#----10101010-12121212-9999-10-9-7----------------------------------|
F-----10101010-12121212-9999-10-9-7----------------------------------|
A#----10101010-12121212-9999-10-9-7----------------------------------|

C--------------------------------------------------------------------|
G--------------------------------------------------------------------|
D#-------------------------------------------------------------------|
A#-------------------------------------------------------------------|
F--------------------------------------------------------------------|
A#------7777777777777777--1010101010101010-\12-5555555555555555-(pms)|

C--------------------------------------------------------------------|
G--------------------------------------------------------------------|
D#--------------99999999---------------------------------------------|
A#-----7777777777777777----10101010--10-12-5-------------------------|
F--------------------------10101010--10-12-5-------------------------|
A#-------------------------10101010--10-12-5-------------------------|

	(chorus)
C--------------------------------------------------------------------|
G--------------------------------------------------------------------|
D#-------------------------------------------------------------------|
A#----7--10--12-5------7---10101010-12121212-9999-10-9-7-------------|
F-----7--10--12-5-(x3)-7---10101010-12121212-9999-10-9-7-------------|
A#----7--10--12-5------7---10101010-12121212-9999-10-9-7-------------|

C----------------------------------------------------------------------------------------|
G----------------------------------------------------------------------------------------|
D#---------------------------------------------------------------------------------------|
A#---10101010-12121212-9999-9-10101010-12121212-9999-10-9-7-10101010-14141414-7777-7\\---|
F----10101010-12121212-9999---10101010-12121212-9999-10-9-7-10101010-14141414-7777-7\\---|
A----10101010-12121212-9999---10101010-12121212-9999-10-9-7-10101010-14141414-7777-7\\---|

Tabbed by: Nick1814
Suggest correction
Creating personal tab
Creating personal tab
You can edit any tab online and save it as your Personal.

You can edit, replace or remove any tab part or add personal notes – all changes will be seen only by you.

Personal tabs can be accessed anytime from any device, even offline.
Learn more »
Give kudos to tab author, rate the tab!
1 2 3 4 5
comments
print report bad tab
10 comments total. Showing first comments.
0 reply
floydian07 30 Jun 30, 2007 04:07 PM

Tuning?

+1 reply
Nick1814 41 Jul 01, 2007 08:45 AM

A#

0 reply
floydian07 30 Jul 02, 2007 11:23 AM

Thanks.

guest
You may want to rate the tab now too:
select rating
Wanna post a correction for this tab? Suggest correction