Oops, an error
Loading. Please wait.
We have an official The Red tab made by UG professional guitarists. Check out the tab »
×

The Red tab

14,863 views 135 this week
7 commentsread comments
1 2 3 4 5
x 12
add to favorites
×
Save as Personal and add changes to this tab that will be seen only by you. Learn more ›
×
You can save this tab as Personal to edit and correct it or add notes. All changes will be seen only by you. Learn more »
launch autoscroll
font size
0
reset
how to read this tab
guitar tuner
backing track
0:00
0:00
edit
Autoscroll
slow
fast
+/-
esc
set tempo
stop
                             Chevelle - The Red
----------------------------------------------------------------------

By: rackmaster32

Dropped Db Tuning
Db Ab Db Gb Bb Eb

() - Double Digit Frets
~ - Tremolo Pick

Intro, Post-Chorus, and Outro
eb|--------------------------------|
Bb|--------------------------------|
Gb|--------------------------------|
Db|0-----3303h5-0-----8888h(10)----|
Ab|0-5h7-3303h5-0-5h7-8888h(10)----|
Db|0-----3303h5-0-----8888h(10)----|

Verse
eb|---------------------------------|
Bb|---------------------------------|
Gb|---------------------------------|
Db|0-----3303h5-0-----8888h(10)-----|
Ab|0-5h7-3303h5-0-5h7-8888h(10)-----|
Db|0-----3303h5-0-----8888h(10)-----|
   P.M.-----------------------|                                                 

Chorus              
eb|--------------------------------------------------------|
Bb|--------------------------------------------------------|
Gb|--------------------------------------------------------|
Db|0-0-3-3-(10)-(10)-(10)-(10)--0-0-3-3-(10)-(10)-5h77777--|
Ab|0-0-3-3-(10)-(10)-(10)-(10)--0-0-3-3-(10)-(10)-5h77777--|
Db|0-0-3-3-(10)-(10)-(10)-(10)--0-0-3-3-(10)-(10)-5h77777--|

Solo
eb|------------------------------------------------------------------|
Bb|------------------------------------------------------------------|
Gb|------------------------------------------------------------------|
Db|------------------------------------------------------------------|
Ab|-(12)~~~~~~~----------------------(12)~~~~~~~~~~------------------|
Db|--------------(10)~~~(12)~~~~~~~~~~-------------(12)~~~~~~~~~~~~--|

Fill
eb|----------------------------|
Bb|----------------------------|
Gb|----------------------------|
Db|88xxxx88xxxx77xxxx77xxxx----|
Ab|88xxxx88xxxx77xxxx77xxxx----|
Db|88xxxx88xxxx77xxxx77xxxx----|

Song Order-

Intro
Verse
Chorus
Post-Chorus
Verse 2x
Chorus
Solo
Chorus 2x
Fill
Outro

Any corrections email at rackmaster32@yahoo.com
======================================================================

            
            
Suggest correction
Creating personal tab
Creating personal tab
You can edit any tab online and save it as your Personal.

You can edit, replace or remove any tab part or add personal notes – all changes will be seen only by you.

Personal tabs can be accessed anytime from any device, even offline.
Learn more »
comments
print report bad tab
7 comments total. Showing first comments.
0 reply
MetallicaRulz38 50 Oct 02, 2002 08:00 PM

The tab is great but I think the intro goes like this
-------------------------------------
-------------------------------------
-------------------------------------
-0--------3-333-5--0--------8-888-10-
-0--5-7-5-3-333-5--0--5-7-5-8-888-10-
-0--0-0-0-3-333-5--0--0-0-0-8-888-10-

0 reply
MetallicaRulz38 50 Oct 02, 2002 08:00 PM

crap that didnt work...ill try it again
-------------------------------------
-------------------------------------
-------------------------------------
-0------------3-333-5--0--------8-888-10-
-0--5-7-5-3-333-5--0--5-7-5-8-888-10-
-0--0-0-0-3-333-5--0--0-0-0-8-888-10-

0 reply
MetallicaRulz38 50 Oct 02, 2002 08:00 PM

it still doesnt look right but it isnt hard to figure it out

guest
Wanna post a correction for this tab? Suggest correction