Oops, an error
Loading. Please wait.
We have Chord Pro version of The Red.
It's the closest thing you can get to the original song and it has interactive parts. Check out the tab »
×

The Red Tab

version 11
version 11

Whole song

Interactive

208 views 3 this week
no commentswrite comment
1 2 3 4 5
3 more votes to show rating
add to favorites
×
Save as Personal and add changes to this tab that will be seen only by you. Learn more ›
×
You can save this tab as Personal to edit and correct it or add notes. All changes will be seen only by you. Learn more »
save as personal
new!
launch autoscroll
font size
0
reset
how to read this tab
guitar tuner
backing track
0:00
0:00
Autoscroll
slow
fast
+/-
esc
set tempo
stop
Author
Difficulty
Tuning
intermediate
C# G# C# F# A# D#
About this tab version
Revised best version to include timing and removed extra notes (attributed to bass and/or delay effect). Was this info helpful? Yes No
-------------------------------------------------------------------------------
                             The Red - Chevelle
-------------------------------------------------------------------------------
Tabbed by: shadowflame616
E-mail: uhlig.m13@gmail.com

This is based on "The Red Tab (ver 8) by anotheridiot101, with some careful revisions:
##Revisions##
# >Re-formatted to accurately show rhythm: note length is represented by the dashes of space AFTER the note.
#   There is a complementary space beginning each measure "--" that is not part of note-content, and when
#   a measure ends on a dotted note i added an extra dash afterward for readability.
#      Notations:      Note|   16th    |    8th   |   Quarter    |      Half     |
#                      Note|  [--x-]   | [--x--]  |   [--x---]   |   [--x===]    |
#                    dotted|  [--x-']  | [--x--'] |   [--x---']  |   [--x===']   |
#             double dotted|  [--x-"]  | [--x--"] |   [--x---"]  |
|
| 
|  Tuning: C# Standard (C# F# B E G# C#)
|
|  Time: 3/8 {or 6/8}  Tempo: 160 bpm  (same as 3/4 time at 80 bpm)
|
***************************************
*                  *                  *
* /   slide up     * x   scratch      *
* \   slide down   * .   palm mute    *
* &   rest         * ~   bend         *
* p   pull-off     * :   repeat       *
* |   barline      *                  * 
*                                     *
***************************************


#Intro: pattern in first three measures is 8th, then four 16th; the last measure is three 8th notes
   (very slight overdrive and delay)


e||-------------|-------------|-------------|--------------:|
B||-------------|-------------|-------------|--------------:|
G||-------------|-------------|-------------|--------------:|
D||--7----------|-----5-5-5---|--7--------7-|--10--10--10--:|  x2
A||--7--7-7-9-7-|--5--5-5-5-5-|--7--7-7-9-7-|--10--10--10--:|
E||--0--0-0-0-0-|--3--3-0-3-0-|--0--0-0-0-0-|---8---8---8--:|



Verse 1: same riff as the intro but dampened (higher volume, heavier distortion/delay, and dampened{PM})
   (higher volume, heavier distortion, delay)

    They say freak.....
e||-------------|-------------|-------------|-----------:|
B||-------------|-------------|-------------|-----------:|
G||-------------|-------------|-------------|-----------:|
D||--7----------|-----5-5-5---|--7--------7-|-10-10-10--:|  x3
A||--7--7-7-9-7-|--5--5-5-5-5-|--7--7-7-9-7-|-10-10-10--:|
E||--0--0-0-0-0-|--3--3-0-3-0-|--0--0-0-0-0-|--8--8--8--:|
     .  . . . .    .  . . . .    .  . . . .    .  .  .
  |_P.M._________________________________________________|



Bridge 1: intro riff, but with effects from verse
   (distortion, delay)


e||-------------|-------------|-------------|---------|
B||-------------|-------------|-------------|---------|
G||-------------|-------------|-------------|---------|
D||--7----------|-----5-5-5---|--7--------7-|-10--&---|  
A||--7--7-7-9-7-|--5--5-5-5-5-|--7--7-7-9-7-|-10--&---|
E||--0--0-0-0-0-|--3--3-0-3-0-|--0--0-0-0-0-|--8--&---|



Chorus:
   (distortion, delay)

    So lay down....
e||-----------|-----------|-----------|-----------|-----------|-----------|------------|-----------|
B||-----------|-----------|-----------|-----------|-----------|-----------|------------|-----------|
G||-----------|-----------|-----------|-----------|------7--7-|------7--7-|------7-7-7-|--7--7--7--|
D||--2--'2--2-|--2--'2--2-|--5--'5--5-|--5--'5--5-|--7--'7--7-|--7--'7--7-|--7--'7-7-7-|--7--7--7--|
A||--2--'2--2-|--2--'2--2-|--5--'5--5-|--5--'5--5-|--5--'5--5-|--5--'5--5-|--5--'5-5-5-|--5--5--5--|
E||--0--'0--0-|--0--'0--0-|--3--'3--3-|--3--'3--3-|-----------|--0--'0--0-|------------|-----------|



e||-----------|-----------|-----------|-----------|-----------|-----------|-------------|-----------|
B||-----------|-----------|-----------|-----------|-----------|-----------|-------------|-----------|
G||-----------|-----------|-----------|-----------|------7--7-|------7--7-|-----4-4-4-4-|--4--4--4--|
D||--2--'2--2-|--2--'2--2-|--5--'5--5-|--5--'5--5-|--7--'7--7-|--7--'7--7-|--2--4-4-4-4-|--4--4--4--|
A||--2--'2--2-|--2--'2--2-|--5--'5--5-|--5--'5--5-|--5--'5--5-|--5--'5--5-|--0--2-2-2-2-|--2--2--2--|
E||--0--'0--0-|--0--'0--0-|--3--'3--3-|--3--'3--3-|-----------|--0--'0--0-|-------------|-----------|



Verse 2:

    
e||-------------|-------------|-------------|-----------:|
B||-------------|-------------|-------------|-----------:|
G||-------------|-------------|-------------|-----------:|
D||--7----------|-----5-5-5---|--7--------7-|-10-10-10--:|  x2
A||--7--7-7-9-7-|--5--5-5-5-5-|--7--7-7-9-7-|-10-10-10--:|
E||--0--0-0-0-0-|--3--3-0-3-0-|--0--0-0-0-0-|--8--8--8--:|


   This change......
e||-------------|-------------|-------------|-----------:|
B||-------------|-------------|-------------|-----------:|
G||-------------|-------------|-------------|-----------:|
D||--7----------|-----5-5-5---|--7--------7-|-10-10-10--:|  x4
A||--7--7-7-9-7-|--5--5-5-5-5-|--7--7-7-9-7-|-10-10-10--:|
E||--0--0-0-0-0-|--3--3-0-3-0-|--0--0-0-0-0-|--8--8--8--:|
     .  . . . .    .  . . . .    .  . . . .    .  .  .
  |_P.M._________________________________________________|



e||-------------|-------------|-------------|---------|
B||-------------|-------------|-------------|---------|
G||-------------|-------------|-------------|---------|
D||--7----------|-----5-5-5---|--7--------7-|-10--&---|  
A||--7--7-7-9-7-|--5--5-5-5-5-|--7--7-7-9-7-|-10--&---|
E||--0--0-0-0-0-|--3--3-0-3-0-|--0--0-0-0-0-|--8--&---|
     .  . . . .    .  . . . . 
  |_P.M.______________________|



Chorus x1


Solo:


e|--------|--------|---------|------------|------------|---------|------------|----------|----------|
B|--------|--------|---------|------------|------------|---------|------------|----------|----------|
G|--4---'-|--4---'-|--4---4--|--5---------|------------|---------|------------|------4-4-|--4---4-4-|
D|--------|--------|---------|-----5~~~(7)|--7--7-7--'-|--7--7---|--7-5--5-5--|--9-------|----------|
A|--------|--------|---------|------------|------------|---------|--------(7)-|--7-------|----------|
E|--------|--------|---------|------------|------------|---------|------------|----------|----------|

e|------------|------------|---------|-----------|---------|
B|------------|------------|---------|-----------|---------|
G|--5---------|------------|---------|-----------|---------|
D|-----5~~~(7)|--7--7-7--'-|--7--7---|--7--'7-7--|--7---'\-|
A|------------|------------|---------|-----------|---------|
E|------------|------------|---------|-----------|---------|


Chorus x2


Bridge 2:

e||-------------|-------------|-------------|-----------:|
B||-------------|-------------|-------------|-----------:|
G||-------------|-------------|-------------|-----------:|
D||--7----------|-----5-5-5---|--7--------7-|-10-10-10--:|  x4
A||--7--7-7-9-7-|--5--5-5-5-5-|--7--7-7-9-7-|-10-10-10--:|
E||--0--0-0-0-0-|--3--3-0-3-0-|--0--0-0-0-0-|--8--8--8--:|



e||-------------|-------------|-------------|--------|
B||-------------|-------------|-------------|--------|
G||-------------|-------------|-------------|--------|
D||--7----------|-----5-5-5---|--7--------7-|-10---'-|
A||--7--7-7-9-7-|--5--5-5-5-5-|--7--7-7-9-7-|-10---'-|
E||--0--0-0-0-0-|--3--3-0-3-0-|--0--0-0-0-0-|--8---'-|



e||-------------|--------------|-------------|-------------|
B||-------------|--------------|-------------|-------------|
G||-------------|--------------|-------------|-------------|
D||-10--x-x-x-x-|-10-10--x-x-x-|--9-9--x-x-x-|--9-9--x-x-9-|
A||-10--x-x-x-x-|-10-10--x-x-x-|--9-9--x-x-x-|--9-9--x-x-9-|
E||--8--x-x-x-x-|--8--8--x-x-x-|--7-7--x-x-x-|--7-7--x-x-7-|


Outro:

e||-------------|-------------|-------------|-----------:||
B||-------------|-------------|-------------|-----------:||
G||-------------|-------------|-------------|-----------:||
D||--7----------|-----5-5-5---|--7--------7-|-10-10-10--:||  x4
A||--7--7-7-9-7-|--5--5-5-5-5-|--7--7-7-9-7-|-10-10-10--:||
E||--0--0-0-0-0-|--3--3-0-3-0-|--0--0-0-0-0-|--8--8--8--:||


Suggest correction
Give kudos to tab author, rate the tab!
1 2 3 4 5
comments
print report bad tab
guest
You may want to rate the tab now too:
select rating
Wanna post a correction for this tab? Suggest correction