Oops, an error
Loading. Please wait.
We have an official The Red tab made by UG professional guitarists. Check out the tab »
×
619 views 3 this week
no commentswrite comment
1 2 3 4 5
3 more votes to show rating
add to favorites
×
Save as Personal and add changes to this tab that will be seen only by you. Learn more ›
×
You can save this tab as Personal to edit and correct it or add notes. All changes will be seen only by you. Learn more »
launch autoscroll
font size
0
reset
guitar tuner
backing track
0:00
0:00
edit
Autoscroll
slow
fast
+/-
esc
set tempo
stop
Author
Difficulty
-------------------------------------------------------------------------------
                             THE RED - CHEVELLE
-------------------------------------------------------------------------------
Tabbed by: mercyofsilence 
E-mail: khuffine@deadwinteraudio.com
Youtube Channel: TENCENTPISTOL100

Seen this tab for those who drop tune. I play it in standard tuning with a 
5 string bass. (Technically I play a 4-string strung like a 5 (BEAD)), But Still
Thought it might be useful for those like me that don't like
to retune all the time. 

Tuning:Standard 5 String (BEADG)

Gitar Intro (rest)

        VERSE X4                                               SLIDE INTO CHORUS  
G|-------------------------------------------------------------| G|------|
D|-------------------------------------------------------------| D|------|
A|-------------------------------------------------------------| A|------|
E|---9---9-11-9-11--------7--7---9---9-11-9-11---5---5-7-5-7---| E|------|
B|------------------5---5--5-----------------------------------| B|--7\--|


        CHORUS
G|---------------------------------------------------------------------------------|
D|---------------------------------------------------------------------------------|
A|---------------------------------------------------------------------------------|
E|-------------------------------------02------------------------------------------|
B|---2-2--222--5-5-555--0-0-000--000000----2-2-222--5-5-555--0-0-000--0/9-999999---|


        POST CHORUS X4
G|------------------------------|
D|------------------------------|
A|------------------------------|
E|------------------------4444--|
B|---2-222--5-555--2-222--------|

VERSE 8X
BRIDGE (SAME AS VERSE)
CHORUS X2
POST CHORUS X4

        END
G|---------------------------|
D|---------------------------|
A|---------------------------|
E|--4 444-44-4-3-333-33-3----|
B|------------------------2--|




| /  slide up
| \  slide down
| h  hammer-on
| p  pull-off
| ~  vibrato
| +  harmonic
| x  Mute note
===============================================================================

            
            
Suggest correction
Creating personal tab
Creating personal tab
You can edit any tab online and save it as your Personal.

You can edit, replace or remove any tab part or add personal notes – all changes will be seen only by you.

Personal tabs can be accessed anytime from any device, even offline.
Learn more »
Give kudos to tab author, rate the tab!
1 2 3 4 5
comments
print report bad tab
guest
You may want to rate the tab now too:
select rating
Wanna post a correction for this tab? Suggest correction