Oops, an error
Loading. Please wait.

This Circus tab

version 1
version 1

Whole song

Interactive

5,534 views 9 this week
no commentswrite comment
1 2 3 4 5
x 4
add to favorites
×
Save as Personal and add changes to this tab that will be seen only by you. Learn more ›
×
You can save this tab as Personal to edit and correct it or add notes. All changes will be seen only by you. Learn more »
launch autoscroll
font size
0
reset
how to read this tab
guitar tuner
edit
Autoscroll
slow
fast
+/-
esc
set tempo
stop
Artist: Chevelle
Song: This Circus
Cd: Sci-Fi Crimes
Label: Epic
Tabbed by: MetalSlayer09


tuning: Drop B

Intro part 1

What did I have to lose Being Negative  I bled through the snow
--------------------------------------------------------------------|
--------------------------------------------------------------------|
--------------------------------------------------------------------|
--------------------------------------------------------------------|
--2-2-2-2--2-2-2-2-0-0-4-4-4-4--4-4-4-4-5-5-4-4--2-2-2-2--2-2-2-2---|
--2-2-2-2--2-2-2-2-0-0-4-4-4-4--4-4-4-4-5-5-4-4--2-2-2-2--2-2-2-2---|

Then never set down
--------------------------------|
--------------------------------|
--------------------------------|
--------------------------------|
-0-0-4-4-4-4--4-4-4-4-0-0-0-0---|
-0-0-4-4-4-4--4-4-4-4-0-0-0-0---|

It's clear for today You're sleazy at night And soon as we heal
--------------------------------------------------------------------|
--------------------------------------------------------------------|
--------------------------------------------------------------------|
--------------------------------------------------------------------|
--2-2-2-2--2-2-2-2-0-0-4-4-4-4--4-4-4-4-5-5-4-4--2-2-2-2--2-2-2-2---|
--2-2-2-2--2-2-2-2-0-0-4-4-4-4--4-4-4-4-5-5-4-4--2-2-2-2--2-2-2-2---|

we will run
--------------------------------|
--------------------------------|
--------------------------------|
--------------------------------|
-0-0-4-4-4-4--4-4-4-4-0-0-0-0---|
-0-0-4-4-4-4--4-4-4-4-0-0-0-0---|


intro part 2

or start swinging
------------------------------------------------------------------|
------------------------------------------------------------------|
-9-9-9-9--9-9-9-9-7-7-7-7-11-11-11-11--11-11-11-11-12--12--11-11--|
------------------------------------------------------------------|
-7-7-7-7--7-7-7-7-5-5-5-5-9--9--9--9---9--9--9--9--10--10--9--9---|
------------------------------------------------------------------|

-----------------------------------------------------------[
-----------------------------------------------------------[
-9-9-9-9--9-9-9-9-7-7-7-7-11-11-11-11-11-11-11-11-7-7-7-7--[
-----------------------------------------------------------[
-7-7-7-7--7-7-7-7-5-5-5-5-9--9--9--9--9--9--9--9--5-5-5-5--[
-----------------------------------------------------------[

prechorus

For below they're begging for it I'm on my way, never settle, always learning
----------------------------------------------------------|
----------------------------------------------------------|
----------------------------------------------------------|
----------------------------------------------------------|
-2-2--2-2--2-2-0--4-4--4-4--4-4-0--5-5--5-5--555-4-4-5-0--|
-2-2--2-2--2-2-0--4-4--4-4--4-4-0--5-5--5-5--555-4-4-5-0--|

People, they beg us for it I'm on my way, almost there
----------------------------------------------------------|
----------------------------------------------------------|
----------------------------------------------------------|
----------------------------------------------------------|
-2-2--2-2--2-2-0--4-4--4-4--4-4-0--5-5--5-5--555-4-4-5-0--|
-2-2--2-2--2-2-0--4-4--4-4--4-4-0--5-5--5-5--555-4-4-5-0--|


chorus

this might just feed the mother of all our needs
---------------------------------------|
---------------------------------------|
---------------------------------------|
--2----2---12-12-12-12-10-10-10-10-10--|
--2----2---12-12-12-12-10-10-10-10-10--|
--2----2---12-12-12-12-10-10-10-10-10--|

turning over here
---------------------------------------[
---------------------------------------[
---------------------------------------[
--2----2---12-12-12-12-10-10-10-10-10--[
--2----2---12-12-12-12-10-10-10-10-10--[
--2----2---12-12-12-12-10-10-10-10-10--[


verse

Luck must fight over me And never give in to Weird out the soul
--------------------------------------------------------------------|
--------------------------------------------------------------------|
--------------------------------------------------------------------|
--------------------------------------------------------------------|
--------------------------------------------------------------------|
--2-2-2-2--2-2-2-2-0-0-4-4-4-4--4-4-4-4-5-5-4-4--2-2-2-2--2-2-2-2---|

replace it with salt
--------------------------------[
--------------------------------[
--------------------------------[
--------------------------------[
--------------------------------[
-0-0-4-4-4-4--4-4-4-4-0-0-0-0---[

I live with in sight of THis medicine man how perfectly
--------------------------------------------------------------------|
--------------------------------------------------------------------|
--------------------------------------------------------------------|
--------------------------------------------------------------------|
--------------------------------------------------------------------|
--2-2-2-2--2-2-2-2-0-0-4-4-4-4--4-4-4-4-5-5-4-4--2-2-2-2--2-2-2-2---|

I start
--------------------------------[
--------------------------------[
--------------------------------[
--------------------------------[
--------------------------------[
-0-0-4-4-4-4--4-4-4-4-0-0-0-0---[

swinging, start swinging
------------------------------------------------------------------|
------------------------------------------------------------------|
-9-9-9-9--9-9-9-9-7-7-7-7-11-11-11-11--11-11-11-11-12--12--11-11--|
------------------------------------------------------------------|
-7-7-7-7--7-7-7-7-5-5-5-5-9--9--9--9---9--9--9--9--10--10--9--9---|
------------------------------------------------------------------|

-----------------------------------------------------------[
-----------------------------------------------------------[
-9-9-9-9--9-9-9-9-7-7-7-7-11-11-11-11-11-11-11-11-7-7-7-7--[
-----------------------------------------------------------[
-7-7-7-7--7-7-7-7-5-5-5-5-9--9--9--9--9--9--9--9--5-5-5-5--[
-----------------------------------------------------------[

chorus

this might just feed the mother of all our needs
---------------------------------------|
---------------------------------------|
---------------------------------------|
--2----2---12-12-12-12-10-10-10-10-10--|
--2----2---12-12-12-12-10-10-10-10-10--|
--2----2---12-12-12-12-10-10-10-10-10--|

turning over oh so clear
---------------------------------------|
---------------------------------------|
---------------------------------------|
--2----2---12-12-12-12-10-10-10-10-10--|
--2----2---12-12-12-12-10-10-10-10-10--|
--2----2---12-12-12-12-10-10-10-10-10--|

this might just feed the mother of all our needs
---------------------------------------|
---------------------------------------|
---------------------------------------|
--2----2---12-12-12-12-10-10-10-10-10--|
--2----2---12-12-12-12-10-10-10-10-10--|
--2----2---12-12-12-12-10-10-10-10-10--|

turning over here
---------------------------------------|
---------------------------------------|
---------------------------------------|
--2----2---12-12-12-12-10-10-10-10-10--|
--2----2---12-12-12-12-10-10-10-10-10--|
--2----2---12-12-12-12-10-10-10-10-10--|

   interlude

--------------------------------------------------------[
--------------------------------------------------------[
--------------------------------------------------------[
-2-2--2-2--2-2--2-2--2-2--2-2--2-2--2-2--2-2------------[
-2-2--2-2--2-2--2-2--2-2--2-2--2-2--2-2--2-2------------[
-2-2--2-2--2-2--2-2--2-2--2-2--2-2--2-2--2-2------------[

----------------------------------------------------------|
----------------------------------------------------------|
----------------------------------------------------------|
--2-0-2-5-2--2-0-2--2-0-2-2-0-5---5-7-5----5-5--5-7-10-12-|
--2-0-2-5-2--2-0-2--2-0-2-2-0-3-0-3-5-3----3-3--3-5-10-12-|
--2-0-2-5-2--2-0-2--2-0-2-2-0---0------0-0----------10-12-|

Just run them off or grab and hold
----------------------------------------------------------|
----------------------------------------------------------|
----------------------------------------------------------|
--2-0-2-5-2--2-0-2--2-0-2-2-0-5---5-7-5----5-5--5-7-10-12-|
--2-0-2-5-2--2-0-2--2-0-2-2-0-3-0-3-5-3----3-3--3-5-10-12-|
--2-0-2-5-2--2-0-2--2-0-2-2-0---0------0-0----------10-12-|

Just run them off or grab and hold
----------------------------------------------------------|
----------------------------------------------------------|
----------------------------------------------------------|
--2-0-2-5-2--2-0-2--2-0-2-2-0-5---5-7-5----5-5--5-7-10-12-|
--2-0-2-5-2--2-0-2--2-0-2-2-0-3-0-3-5-3----3-3--3-5-10-12-|
--2-0-2-5-2--2-0-2--2-0-2-2-0---0------0-0----------10-12-|

Just run them off or grab and hold
----------------------------------------------------------|
----------------------------------------------------------|
----------------------------------------------------------|
--2-0-2-5-2--2-0-2--2-0-2-2-0-5---5-7-5----5-5--5-7-7-7-7-|
--2-0-2-5-2--2-0-2--2-0-2-2-0-3-0-3-5-3----3-3--3-5-5-5-5-|
--2-0-2-5-2--2-0-2--2-0-2-2-0---0------0-0----------------|

prechorus

For below they're begging for it I'm on my way, never settle, always learning
----------------------------------------------------------|
----------------------------------------------------------|
----------------------------------------------------------|
----------------------------------------------------------|
-2-2--2-2--2-2-0--4-4--4-4--4-4-0--5-5--5-5--555-4-4-5-0--|
-2-2--2-2--2-2-0--4-4--4-4--4-4-0--5-5--5-5--555-4-4-5-0--|

People, they beg us for it I'm on my way, almost there
----------------------------------------------------------|
----------------------------------------------------------|
----------------------------------------------------------|
----------------------------------------------------------|
-2-2--2-2--2-2-0--4-4--4-4--4-4-0--5-5--5-5--555-4-4-5-0--|
-2-2--2-2--2-2-0--4-4--4-4--4-4-0--5-5--5-5--555-4-4-5-0--|

chorus

this might just feed the mother of all our needs
---------------------------------------|
---------------------------------------|
---------------------------------------|
--2----2---12-12-12-12-10-10-10-10-10--|
--2----2---12-12-12-12-10-10-10-10-10--|
--2----2---12-12-12-12-10-10-10-10-10--|

turning over heard it oh so clear
---------------------------------------|
---------------------------------------|
---------------------------------------|
--2----2---12-12-12-12-10-10-10-10-10--|
--2----2---12-12-12-12-10-10-10-10-10--|
--2----2---12-12-12-12-10-10-10-10-10--|

this might just feed the mother of all our needs
---------------------------------------|
---------------------------------------|
---------------------------------------|
--2----2---12-12-12-12-10-10-10-10-10--|
--2----2---12-12-12-12-10-10-10-10-10--|
--2----2---12-12-12-12-10-10-10-10-10--|

turning over here
---------------------------------------|
---------------------------------------|
---------------------------------------|
--2----2---12-12-12-12-10-10-10-10-10--|
--2----2---12-12-12-12-10-10-10-10-10--|
--2----2---12-12-12-12-10-10-10-10-10--|

outro


--------------------------------------------------------------------|
--------------------------------------------------------------------|
--------------------------------------------------------------------|
--------------------------------------------------------------------|
--------------------------------------------------------------------|
--2-2-2-2--2-2-2-2-0-0-4-4-4-4--4-4-4-4-5-5-4-4--2-2-2-2--2-2-2-2---|

--------------------------------|
--------------------------------|
--------------------------------|
--------------------------------|
--------------------------------|
-0-0-4-4-4-4--4-4-4-4-0-0-0-0---|

--------------------------------------------------------------------|
--------------------------------------------------------------------|
--------------------------------------------------------------------|
--------------------------------------------------------------------|
--------------------------------------------------------------------|
--2-2-2-2--2-2-2-2-0-0-4-4-4-4--4-4-4-4-5-5-4-4--2-2-2-2--2-2-2-2---|


--------------------------------[
--------------------------------[
--------------------------------[
--------------------------------[
--------------------------------[
-0-0-4-4-4-4--4-4-4-4-0-0-0-0---[
Suggest correction
Creating personal tab
Creating personal tab
You can edit any tab online and save it as your Personal.

You can edit, replace or remove any tab part or add personal notes – all changes will be seen only by you.

Personal tabs can be accessed anytime from any device, even offline.
Learn more »
comments
print report bad tab
guest
You may want to rate the tab now too:
select rating
Wanna post a correction for this tab? Suggest correction