Oops, an error
Loading. Please wait.

Well Enough Alone bass

version 1
version 1

Whole song

Interactive

6,015 views 1 this week
5 commentsread comments
1 2 3 4 5
x 8
add to favorites
×
Save as Personal and add changes to this tab that will be seen only by you. Learn more ›
×
You can save this tab as Personal to edit and correct it or add notes. All changes will be seen only by you. Learn more »
launch autoscroll
font size
0
reset
guitar tuner
backing track
0:00
0:00
edit
Autoscroll
slow
fast
+/-
esc
set tempo
stop
Author
Song: Well Enough Alone
Artist: Chevelle
Album: Vena Sera
Tuning: BEADG (Standard)

============================================================================

Intro:
G|-----|
D|-----|
A|-----|
E|-----|
B|-333-|

G|------|
D|------|
A|------| x15
E|------|
B|-3333-|

G|---|
D|---|
A|---|
E|---|
B|-3-|


Verse: x4
G|--------------------|
D|--------------------|
A|---------3----------|
E|-2----3-------------|
B|------------3-------|

Pre-Chorus:
G|-----------------------------------------------------|
D|-----------------------------------------------------|
A|-----------------------------------------------------|
E|-222222222222-333333333333-555555555555-777777777777-|
B|-----------------------------------------------------|

G|---------------------------------------------------|
D|---------------------------------------------------|
A|---------------------------------------------------|
E|-33333333333-555555555555-777777777777777777777777-|
B|---------------------------------------------------|

Chorus: x2
G|---------------------------------------------------|
D|---------------------------------------------------|
A|---------------------------------------------------|
E|--------------------------333333333333333333333333-|
B|-333333333333333333333333--------------------------|

-->Intro: x8
-->Verse: x1
-->Pre-Chorus: x1
-->Chorus: x2

Bridge (Part 1): x2
G|-------------------------------------------|
D|--------r---------r---------r--------------|
A|--------e---------e---------e--------------|
E|-2-2-2--s--2-2-2--s--2-2-2--s--5-2-7-5-3-0-|
B|--------t---------t---------t--------------|

Bridge (Part 2): x4
G|--------------------|--------------------|--------------------------|
D|--------------------|--------------------|--------------------------|
A|--------------------|--------------------|--------------------------|
E|-2-22222-22h3p2-0/2-|-2-22222-22h3p2-0/2-|-22222-22h3p2-55555-00000-|
B|--------------------|--------------------|--------------------------|

G|---------|
D|---------|
A|---------|
E|---------|
B|-3-------|

-->Pre-Chorus: x1
-->Chorus: x6

Outro:
G|----------------------|
D|----------------------|
A|----------------------|
E|-3-3-3-3-3-3----------|
B|---------------0------|

============================================================================
| /  slide up
| \  slide down
| h  hammer-on
| p  pull-off
| ~  vibrato
| +  harmonic
| x  Mute note
============================================================================

            
            
Suggest correction
Creating personal tab
Creating personal tab
You can edit any tab online and save it as your Personal.

You can edit, replace or remove any tab part or add personal notes – all changes will be seen only by you.

Personal tabs can be accessed anytime from any device, even offline.
Learn more »
comments
print report bad tab
5 comments total. Showing first comments.
-1 reply
Fender700 73 May 24, 2007 11:35 AM

dude its a 4 string in B,F#,B,E. and the last noe of the song is a B

-1 reply
Fender700 73 May 24, 2007 11:35 AM

note*

+1 reply
petchimp 10 Sep 19, 2007 03:44 PM

why would u want to tune down that low? And this tab can work on a 4 stringer, just play the notes that are supposed to play on the B string on one of the other strings. Great tab, would be even better if u just did 4 string.

guest
You may want to rate the tab now too:
select rating
Wanna post a correction for this tab? Suggest correction