Oops, an error
Loading. Please wait.

Well Enough Alone tab

version 1
version 1

Interactive

11,968 views 1 this week
5 commentsread comments
1 2 3 4 5
x 3
add to favorites
×
Save as Personal and add changes to this tab that will be seen only by you. Learn more ›
×
You can save this tab as Personal to edit and correct it or add notes. All changes will be seen only by you. Learn more »
launch autoscroll
font size
0
reset
how to read this tab
guitar tuner
backing track
0:00
0:00
edit
Autoscroll
slow
fast
+/-
esc
set tempo
stop
Author
Difficulty
"Well Enough Alone" Recorded by Chevelle
(2007 album "Vena Sera")

Music by Chevelle
Transcribed by Mark Miller Jr.

Tuning - (B F# B E G# C#) Drop B

NOTE: This song just came out a few days ago. This tab isn't perfect, just based on me 
to it. The Bridge needs some work definetly. But this should get you started.


INTRO:
|----------------------------------------------------------|
|----------------------------------------------------------|
|----0-6-6-6--0-6-6-6--0-6-6-6-----------------------------|
|----0-4-4-4--0-4-4-4--0-4-4-4-----------------------------|
|----0-4-4-4--0-4-4-4--0-4-4-4-----------------------------|
|----0-4-4-4--0-4-4-4--0-4-4-4 (I believe you play this 16-|x)
(Scream)


VERSE:
|-------------------------------|
|-------------------------------|
|-------------------------------|
|--------4--------------4-------|
|--1--2-----------1--2----------|
|----------4--(4)---------4-----|(4)

"Walk down , around.........."

|-------------------------------|
|-------------------------------|
|---333333-444444-666666-888888-|
|---333333-444444-666666-888888-|
|---111111-222222-444444-666666-|
|---xxxxxx-xxxxxx-xxxxxx-x------|xxxxx (This part is palm-muted)

"And life before, makes no sense....."

CHORUS:
|----------------------------------|
|----------------------------------|
|---66666xx-44444----66666xx-44444-|
|---44444xx-44444----44444xx-44444-|
|---44444xx-22222----44444xx-22222-|
|---44444xx-xxxxx----44444xx-xxxxx-|

"Why we live....well enough alone......"

INTRO:
VERSE:

BRIDGE:
|---------------------------|
|-----------3---------3-----|
|---333-1/3--3-333-1/3-3-33-|
|---333--------333-------xx-|
|---111--------111-------11-|
|---xxx--------xxx-------xx-|

|----------------------------------|
|----------------------------------|
|----------------------------------|
|---6/8888-6/8888-6/8888--11-11-66-|
|---6/8888-6/8888-6/8888--11-11-66-|
|---6/8888-6/8888-6/8888--11-11-66-|

"The old, and the aged......"

            
            
Suggest correction
Creating personal tab
Creating personal tab
You can edit any tab online and save it as your Personal.

You can edit, replace or remove any tab part or add personal notes – all changes will be seen only by you.

Personal tabs can be accessed anytime from any device, even offline.
Learn more »
Give kudos to tab author, rate the tab!
1 2 3 4 5
comments
print report bad tab
5 comments total. Showing first comments.
0 reply
365_days_gone 4,287 Feb 01, 2007 05:17 AM

Well that was quick! wow

0 reply
vena_sera 10 Feb 05, 2007 06:55 AM

Not really complete, some parts don't really match up. The sections of lyrics posted are inaccurate, too. Kudos though for getting the tab out so quick!

0 reply
Geo789 10 Apr 01, 2007 07:36 AM

not bad, but someone should tab the other songs on Vena Sera.

guest
You may want to rate the tab now too:
select rating
Wanna post a correction for this tab? Suggest correction