Oops, an error
Loading. Please wait.

Well Enough Alone bass

version 2
version 2

Whole song

Interactive

1,232 views 1 this week
1 commentread comment
1 2 3 4 5
x 3
add to favorites
×
Save as Personal and add changes to this tab that will be seen only by you. Learn more ›
×
You can save this tab as Personal to edit and correct it or add notes. All changes will be seen only by you. Learn more »
launch autoscroll
font size
0
reset
guitar tuner
backing track
0:00
0:00
edit
Autoscroll
slow
fast
+/-
esc
set tempo
stop
intro:
G|--------|--------|-------|
d|--------|--------|-------|
A|--555---|--5555--|---5---|
D|--------|--------|-------|
             x15


verse:
G|-----------------|
d|-----------------|
A|--------5~-------|
D|---4~~5~--0~~~---|x4



pre-chorus:
G|-------------------------------------------------------|
d|-------------------------------------------------------|
A|-------------------------------------------------------|
D|--444444444444-555555555555-777777777777-999999999999--|x2



chorus:
G|------------------------------------------------------|
d|------------------------------------------------------|
A|--555555555555555555555555----------------------------|
D|----------------------------999999999999999999999999--|x2



bridge:
G|----------r------------r-----------r-----------------|
d|----------e------------e-----------e-----------------|
A|----------s------------s-----------s-----------------|
D|--4-4-4---t---4-4-4\0--t---4-4-4---t---7-4-9-7-5-2---|x2

G|---------------------|--------------------|----------------------------|
d|---------------------|--------------------|----------------------------|
A|---------------------|--------------------|----------------------------|
D|-4-44444-44h5p4-2/4--|4-44444-44h5p4-2/4--|--44444-44h5p4-77777-22222--|x4

G|-----------|
d|-----------|
A|-----------|
D|----0~~~---|


song structure:
intro
verse
pre-chorus
chorus
intro (x8 instead of x15)
verse
pre-chorus
chorus
bridge
pre-chorus
chorus (x6 instead of x2)
****after last chorus, end on open D

            
            
Suggest correction
Creating personal tab
Creating personal tab
You can edit any tab online and save it as your Personal.

You can edit, replace or remove any tab part or add personal notes – all changes will be seen only by you.

Personal tabs can be accessed anytime from any device, even offline.
Learn more »
Give kudos to tab author, rate the tab!
1 2 3 4 5
comments
print report bad tab
1 comment total.
0 reply
Devology 10 Feb 20, 2012 09:54 AM

Most of it seems pretty accurate, but on the prechorus, 4579 aren't repeated, you just let it play out for a minute. So you just hit 4 hard, and once the sound starts to die out, you hit 5, and so on. So instead of 4444444444 5555555, it's just 4------ 5-----. I can't write tabs so I don't know how to type it up right, but you should get the point. Otherwise, pretty good.

guest
You may want to rate the tab now too:
select rating
Wanna post a correction for this tab? Suggest correction