Oops, an error
Loading. Please wait.

Well Enough Alone tab

version 2
version 2

Interactive

27,319 views 9 this week
17 commentsread comments
1 2 3 4 5
x 25
add to favorites
×
Save as Personal and add changes to this tab that will be seen only by you. Learn more ›
×
You can save this tab as Personal to edit and correct it or add notes. All changes will be seen only by you. Learn more »
launch autoscroll
font size
0
reset
how to read this tab
guitar tuner
backing track
0:00
0:00
edit
Autoscroll
slow
fast
+/-
esc
set tempo
stop
==========================================================================
Song: "Well Enough Alone" by Chevelle
Music by Chevelle, lyrics by Pete Loeffler
Album: Vena Sera, 2007
Transcribed by Shaun Jackson (shaun.jackson1@hotmail.com)

Tuning: (D A D G B E) Drop-D

NOTES: This is the newly released single from Chevelle's upcoming album, Vena Sera. Pete
the song in Drop-B tuning, however it's almost unnecessary to tune your guitar down
low to play it. The only time Pete plays a note lower than D is the B power chord at the 
of the song, which can be improvised with a higher B chord. If you have any questions or
feel free to e-mail me. That being said, here it is.
===========================================================================

[INTRO]:
E|------|-(x15)|----|
B|------|------|----|
G|-777--|-7777-|-7--|
d|-777--|-7777-|-7--|
A|-555--|-5555-|-5--|
D|-000--|-0000-|-0--|

[VERSE]: (x4)
E|---------------------|
B|---------------------|
G|---------------------|
d|---------------------|
A|---------5==---------|
D|-4====5==---0========|

[PRECHORUS]:
E|-------------------------------------------------------|
B|-------------------------------------------------------|
G|-[xxxxxxxxxxxxxxxxxx-palm mute-xxxxxxxxxxxxxxxxxxxx]---|
d|-------------------------------------------------------|
A|-444444444444-555555555555-777777777777-999999999999...|
D|-444444444444-555555555555-777777777777-999999999999...|

[PRECHORUS cont’d]:
E|------------------------------------------------------|
B|---[xxxxxxxxxx-palm mute-xxxxxxxxxxxxxxx]-------------|
G|------------------------------------------------------|
d|...--------------------------------------999999999999-|
A|...555555555555-777777777777-999999999999999999999999-|
D|...555555555555-777777777777-999999999999999999999999-|

[CHORUS]: (x2)
E|---------------------------------------------------|
B|---------------------------------------------------|
G|---------------------------------------------------|
d|-000000000000000000000000-555555555555555555555555-|
A|-000000000000000000000000-555555555555555555555555-|
D|-000000000000000000000000-555555555555555555555555-|

>>[INTRO x8]

>>[VERSE x4]

>>[PRECHORUS x1]

>>[CHORUS x2]

[BRIDGE1]: (x2)
E|---------------|---------------|---------------|-------------|
B|---------------|---------------|---------------|-------------|
G|----------4----|----------6----|---------4-----|-------------|
d|-4-4-4-4h5-5\4-|-4-4-4-4h5-5\4-|-4-4-4-4h5-5\4-|-7-4-9-7-5-2-|
A|-4-4-4---------|-4-4-4---------|-4-4-4---------|-7-4-9-7-5-2-|
D|-4-4-4---------|-4-4-4---------|-4-4-4---------|-7-4-9-7-5-2-|

[BRIDGE2]: (x4)
E|--------------------|--------------------|----------------------------|
B|--------------------|--------------------|----------------------------|
G|--------------------|--------------------|----------------------------|
d|-4-44444-44h5p4-2/4-|-4-44444-44h5p4-2/4-|-44444-44h5p4-77777-22222...|
A|-4-44444-44h5p4-2/4-|-4-44444-44h5p4-2/4-|-44444-44h5p4-77777-22222...|
D|-4-44444-44h5p4-2/4-|-4-44444-44h5p4-2/4-|-44444-44h5p4-77777-22222...|

[End BRIDGE2 with this]:
E|------------|
B|------------|
G|------------|
d|...0========|
A|...0========|
D|...0========|

>>[PRECHORUS x1]

>>[CHORUS x6...]

[End 6th CHORUS repeat with this]:
E|------------------------------|
B|------------------------------|
G|-----------------6========~~~~|
d|...5-5-5-5-5-5---4========~~~~|
A|...5-5-5-5-5-5---2========~~~~|
D|...5-5-5-5-5-5----------------|

-SYMBOLS-
h – hammer-on
p – pull-off
x – palm mute
= - hold note
~ - vibrato/bend
\ - slide down
/ - slide up

            
            
Suggest correction
Creating personal tab
Creating personal tab
You can edit any tab online and save it as your Personal.

You can edit, replace or remove any tab part or add personal notes – all changes will be seen only by you.

Personal tabs can be accessed anytime from any device, even offline.
Learn more »
comments
print report bad tab
17 comments total. Showing first comments.
0 reply
vena_sera 10 Feb 05, 2007 06:45 AM

Very well done, looks to be just about perfect! Thanks for posting this so quick!

0 reply
that_i_am 89 Feb 23, 2007 05:41 PM

NIce tab

0 reply
fuzzyhippo 30 Mar 17, 2007 01:56 PM

great tab. pretty flawless...

btw... this song ROCKS. k, bye

guest
You may want to rate the tab now too:
select rating
Wanna post a correction for this tab? Suggest correction