Oops, an error
Loading. Please wait.

Well Enough Alone tab

version 4
version 4

Interactive

3,787 views 1 this week
4 commentsread comments
1 2 3 4 5
x 7
add to favorites
×
Save as Personal and add changes to this tab that will be seen only by you. Learn more ›
×
You can save this tab as Personal to edit and correct it or add notes. All changes will be seen only by you. Learn more »
launch autoscroll
font size
0
reset
how to read this tab
guitar tuner
backing track
0:00
0:00
edit
Autoscroll
slow
fast
+/-
esc
set tempo
stop
Author
Difficulty
"Well Enough Alone" by Chevelle
From the upcoming album 'Vena Sera'

Transcribed by Jason Hudson  rockerstud555@hotmail.com

Tuning is Dropped D down 2 full steps to (Bb F Bb Eb G C)

NOTE:  Like all Chevelle songs, this is really easy to play if you
  know how to tune your guitar down this low..  you can play
  it in Dropped D, but it will sound 2 steps higher than it
  sounds on the record.

INTRO: Heavy Distortion with Wah and harmonix
|-----------------------------------------------|
|-----------------------------------------------|
|-----6-6-6-x--6-6-6-x--------------------------|
|-----4-4-4-x--4-4-4-x--------------------------|
|-----4-4-4-x--4-4-4-x--------------------------|
|-----4-4-4-x--4-4-4-x-----(play 4x)------------|
(Scream)


VERSE: Light Distortion
|-------------------------------------------|
|-------------------------------------------|
|-------------------------------------------|
|-------------------------------------------|
|-----------9-------------------------------|
|--8-----9------4------------(4x)-----------|
 "Walk down the realm.."


PRE-CHORUS: Light Distortion with Auto-Wah
|---------------------------------------|
|---------------------------------------|
|---------------------------------------|
|------------8---------------9----------|
|------------8---------------9----------|
|------------8-(x12)---------9-(12x)----| P.M.
 "And like before.. makes no sense.."


|---------------------------------------|
|---------------------------------------|
|---------------------------------------|
|-------11---------------13-------------|
|-------11---------------13-------------|
|-------11-(x12)---------13-(12x)-------| P.M.
 "Never coming..  always leaving.."


|------------------------------------------|
|------------------------------------------|
|------------------------------------------|
|-------9-------------------11-------------|
|-------9-------------------11-------------|
|-------9-(x12)-------------11-(12x)-------| P.M.
 "Right before..  hooked on substance.."


|----------------------------------------------------|
|----------------------------------------------------|
|--------------------------------------x-x--x-x------|
|--------13----------------16----------x-x--x-x------|
|--------13----------------16----------x-x--x-x------|
|--------13-(x12)----------16-(7x)-----x-x--x-x------|
 "Dig in deeper..  can't reveal..      why  we.."

CHORUS: Distortion
|-----------------------------------------------------|
|-----------------------------------------------------|
|--6-66-6-------6-66-6--------11-11---11--------------|
|--4-44-4-------4-44-4--------9--9----9---------------|
|--4-44-4-------4-44-4--------9--9----9---------------|
|--4-44-4-------4-44-4--------9--9----9---------------|
  "Leave..      well enough alone..

|------------------------------------------------------|
|------------------------------------------------------|
|--6-66-6-----6--66---6----------11-11---11------------|
|--4-44-4-----4--44---4----------9--9----9-------------|
|--4-44-4-----4--44---4----------9--9----9-------------|
|--4-44-4-----4--44---4----------9--9----9-------------|
  "Never..    thought about the shame.."


BRIDGE: Distortion with Wah
|------------------------------------------------------------|
|------------------------------------------------------------|
|--10--10--10--x------8----------10--10--10-x------10--------|
|---8---8---8--x--8/9---9--------8---8---8--x--8/9----9------|
|---8---8---8--x-----------------8---8---8--x----------------|
|---8---8---8--x-----------------8---8---8--x----------------|


|------------------------------------------------------------|
|------------------------------------------------------------|
|--10--10--10--x------8--------------------------------------|
|--10--10--10--x--8/9---9----------4-------------------------|
|--10--10--10--x------------/6--4-----6--4--2----------------|
|---8---8---8--x---------------------------------------------|


|------------------------------------------------------------|
|------------------------------------------------------------|
|------------------------------------------------------------|
|--6h8-8---8-8---8-8-11p8-------6h8-8---8-8---8-8-11p8-------|
|--6h8-8---8-8---8-8-11p8-------6h8-8---8-8---8-8-11p8-------|
|--6h8-8---8-8---8-8-11p8-------6h8-8---8-8---8-8-11p8-------|


|---------------------------------------------------------------|
|---------------------------------------------------------------|
|---------------------------------------------------------------|
|--6h8-8---8-8---8---8-9-11-11-11-x-6--6-6----------------------|
|--6h8-8---8-8---8---8-9-11-11-11-x-6--6-6----------------------|
|--6h8-8---8-8---8---8-9-11-11-11-x-6--6-6--(x4)----------------|


   REPEAT: PRE-CHORUS
           CHORUS

                          THE END!


 COMMENTS AND QUESTIONS.....  rockerstud555@hotmail.com

   If it doesn't sound right, its probably your tuning!

            
            
Suggest correction
Creating personal tab
Creating personal tab
You can edit any tab online and save it as your Personal.

You can edit, replace or remove any tab part or add personal notes – all changes will be seen only by you.

Personal tabs can be accessed anytime from any device, even offline.
Learn more »
comments
print report bad tab
4 comments total. Showing first comments.
0 reply
ready2breakdown 57 Apr 05, 2007 05:05 PM

thank you so much! The first right tab out of all 30 of them. lmao. but really seems right to me, only part i was a little curious on was the verses, but ill mess with them a little more before i judge the tab.

0 reply
audioslave41413 30 Apr 30, 2007 09:47 AM

i htink the tuning is drop b but it looks like u have the right chords for that tuning good job

0 reply
PMaurer 60 Jun 16, 2007 06:53 PM

tuning is right, chords aren't, check out the live videos.

guest
You may want to rate the tab now too:
select rating
Wanna post a correction for this tab? Suggest correction