Oops, an error
Loading. Please wait.

Well Enough Alone tab

version 5
version 5

Interactive

953 views 3 this week
1 commentread comment
1 2 3 4 5
x 3
add to favorites
×
Save as Personal and add changes to this tab that will be seen only by you. Learn more ›
×
You can save this tab as Personal to edit and correct it or add notes. All changes will be seen only by you. Learn more »
launch autoscroll
font size
0
reset
how to read this tab
guitar tuner
backing track
0:00
0:00
edit
Autoscroll
slow
fast
+/-
esc
set tempo
stop
Author
                               chevelle
                           well enough alone
drop d tuning, down 1 1/2 steps
 intro(gtrs.1&2)
|--3-3--3-3--3-3--3---|
|--6-6--6-6--6-6--6--o|
|--5-5--5-5--5-5--5---|
|--3-3--3-3--3-3--3---|play 8 times
|--3-3--3-3--3-3--3--o|
|--3-3--3-3--3-3--3---|

 verses 1&2
|-------------------|-----|------------------|------------------------|
|-------------------|-----|------------------|-----------------------o|
|-------------------|-----|------------------|------------------------|
|-----------3-------|-----|-----------3------|--------3-------3-----3-|
|--0----1-----------|-----|--0----1----------|--------x--------------o|
|-------------------|-3---|------------------|-3------3----3-----3----|

 pre-chorus
 gtrs.1&2
|--------------------------|---------------------------|
|--------------------------|---------------------------|
|--------------------------|---------------------------|
|--------------------------|---------------------------|
|--2-2-2-2-2-2-2-2-2-2-2-2-|-3-3-3-3-3-3-3-3-3-3-------|
|--0-0-0-0-0-0-0-0-0-0-0-0-|-0-0-0-0-0-0-0-0-0-0-0-0---|

|-------------------------|
|-------------------------|
|-------------------------|
|-------------------------|
|-5-5-5-5-5-5-5-5-5-5-----|
|-0-0-0-0-0-0-0-0-0-0-0-0-|

 gtr.3
|--------------------------|-------------------------|
|--------------------------|-------------------------|
|--------------------------|-------------------------|
|--------------------------|-------------------------|
|--0-0-0-0-0-0-0-0-0-0-0-0-|-1-1-1-1-1-1-1-1-1-1-1-1-|
|--------------------------|-------------------------|

|-------------------------|
|-------------------------|
|-------------------------|
|-------------------------|
|-3-3-3-3-3-3-3-3-3-3-3-3-|
|-------------------------|

 gtrs.1&2
|-------------------------|-------------------------|
|-------------------------|-------------------------|
|-------------------------|-------------------------|
|-7-7-7-7-7-7-7-7-7-7-----|-3-3-3-3-3-3-3-3-3-3-----|
|-5-5-5-5-5-5-5-5-5-5-0-0-|-1-1-1-1-1-1-1-1-1-1-0-0-|
|-------------------------|-------------------------|

|-------------------------|
|-------------------------|
|-------------------------|
|-------------------------|
|-5-5-5-5-5-5-5-5-5-5-----|
|-3-3-3-3-3-3-3-3-3-3-0-0-|

 gtr.3
|------------------------|-------------------------|
|------------------------|-------------------------|
|------------------------|-------------------------|
|------------------------|-------------------------|
|-5-5-5-5-5-5-5-5-5-5-5-5|-1-1-1-1-1-1-1-1-1-1-1-1-|
|------------------------|-------------------------|

|------------------------|
|------------------------|
|------------------------|
|------------------------|
|-3-3-3-3-3-3-3-3-3-3-3-3|
|------------------------|

 chorus(gtrs.1&2)
|-------------------------|-------------------------|-------------------|
|-------------------------|-------------------------|o------------------|
|-------------------------|-------------------------|-------------------|
|-7-7-7-7-7-7-7-7-7-7-7-7-|-7-7-7-7-7-7-7-7-x-x-x-x-|--3--3-3-3-3--3-3-3|
|-5-5-5-5-5-5-5-5-5-5-5-5-|-5-5-5-5-5-5-5-5-x-x-x-x-|o-3--3-3-3-3--3-3-3|
|-------------------------|-----------------x-x-x-x-|--3--3-3-3-3--3-3-3|
 |                         |                         |                   |
 |(gtr.3)                  |                         |                   |
|-------------------------|-------------------------|-------------------|
|-------------------------|-------------------------|o------------------|
|-------------------------|-------------------------|-------------------|
|-------------------------|-------------------------|-------------------|
|-5-5-5-5-5-5-5-5-5-5-5-5-|-5-5-5-5-5-5-5-5-5-5-5-5-|o------------------|
|-------------------------|-------------------------|-------------------|
  gtrs.1,2&3(i do beleive)
|---------------------|-------------------|----------------------|
|---------------------|-------------------|---------------------o|
|---------------------|-3--3-3-3-3--3-3-3-|----------------------|
|-3--3-3-3-3--3-3-----|-3--3-3-3-3--3-3-3-|-3--3-3-3-3--3-3------|
|-3--3-3-3-3--3-3-0-0-|-1--1-1-1-1--1-1-1-|-3--3-3-3-3--3-3-0-0-o|
|-3--3-3-3-3--3-3-0-0-|-------------------|-3--3-3-3-3--3-3-0-0--|
 
|---------------------|-------------------|----------------------|
|---------------------|-------------------|----------------------|
|---------------------|-------------------|----------------------|
|-3-------------------|-------------------|----------------------|
|---------------------|-------------------|----------------------|
|---------------------|-------------------|----------------------|
                               /\
             right here there is microphonic feedback,
                    not produced by strings.
 interlude(gtr.2)
|--------------------|---------------0---0/1-|---------------------|
|----------------3---|-----------------------|---------------3-----|
|--2-2--2--x-2/3---3-|-2-2--2--2-2/3---------|-2-2--2--x-2/3----3--|
|--2-2--2------------|-2-2--2----------------|-2-2--2--------------|
|--0-0--0------------|-0-0--0----------------|-0-0--0--------------|
|--------------------|-----------------------|---------------------|
                                                                    |
|-------------|                                                    |
|-3-3-3-3-3-3-|                                                    |
|-x-x-x-x-x-x-|still gtr.2                                         |
|-0-0-0-0-0-0-|                                                    |
|-------------|                                                    |
|-------------|                                                    |  
 |                                                                  |
 |           this is gtr.1                                          |
|-------------|-------------|-------------|------------------------|
|-------------|-------------|-------------|-3-3-3-3-3-3------------|
|-2-2--2------|-2-2--2------|-2-2--2------|-x-x-x-x-x-x------------|
|-2-2--2------|-2-2--2------|-2-2--2------|-0-0-0-0-0-0------------|
|-0-0--0------|-0-0--0------|-0-0--0------|------------------------|
|-------------|-------------|-------------|------------------------|

|---------------------|---------------0-0-|--------------------|
|---------------3-----|-------------------|---------------3----|
|-2-2--2--x-2/3----3--|-2-2--2--2-2/3-----|-2-2--2--x-2/3----3-|
|-2-2--2--------------|-2-2--2------------|-2-2--2-------------|
|-0-0--0--------------|-0-0--0------------|-0-0--0-------------|
|---------------------|-------------------|--------------------|

|----------------|
|----------------|
|-2------2-------|
|-0-3-3--0-------|
|---1-------3--1-|
|----------------|

|----------------------|----------------------|----------------------|
|o---------------------|----------------------|----------------------|
|----------------------|----------------------|----------------------|
|----------------------|----------------------|----------------------|
|o---------------------|----------------------|----------------------|
|-5/7-7--7-7-7-7-7-8-7-|-5/7-7--7-7-7-7-7-8-7-|-5/7-7--7-7-7-7-5-7-8-|
 right here it is pretty fast..so know were your putting your fingers!! 
 that will make it a lot easier if you practice it slowy then get faster!

|----------------------------|
|---------------------------o|
|----------------------------|
|----------------------------|
|---------------------------o|
|-10--10-10-10-10-5--5-5-5-5-|

|--------------------------|----------------------|
|--------------------------|o---------------------|
|--------------------------|----------------------|
|--------------------------|--5/7--7--7-7-7-7-8-7-|
|--------------------------|o-5/7--7--7-7-7-7-8-7-|
|--10--10-10-10-10-5--5-5-x|--5/7--7--7-7-7-7-8-7-|

|-----------------------|
|-----------------------|
|-----------------------|
|-5/7--7--7-7-7-7-7-8-7-|
|-5/7--7--7-7-7-7-7-8-7-|
|-5/7--7--7-7-7-7-7-8-7-|

|-----------------------|------------------------------|-----------------|
|-----------------------|----------------------------o-|-----------------|
|-----------------------|------------------------------|-----------------|
|-5/7--7--7-7-7-7-5-7-8-|-10--10-10-10-10-5--5-5-5-5---|-3---------------|
|-5/7--7--7-7-7-7-5-7-8-|-10--10-10-10-10-5--5-5-5-5-o-|-3---------------|
|-5/7--7--7-7-7-7-5-7-8-|-10--10-10-10-10-5--5-5-5-5---|-3---------------|
 
 outro
|------------------------|---------------------------|-----------------|
|------------------------|---------------------------|-----------------|
|------------------------|---------------------------|-----------------|
|-3----------------------|---------------------------|-----------------|
|------------------------|---------------------------|-----------------|
|------------------------|---------------------------|-----------------|

|----------------------|---------|---0-----------|---0-----|-0-|---|-0---|
|----------------------|-3-------|-----3---3-----|-------6-|---|-3-|-3---|
|----------------------|-2-------|-------2---2---|---------|---|---|-----|
|--3----------3--------|-0-------|-------------0-|---------|---|---|-----|
|----------------------|-0-------|---------------|---------|---|---|-----|
|----------------------|-0-------|---------------|-0-------|---|---|-----|

|---------------|--------|-------|------------|------------|-------------|
|---------------|-3------|-------|-------3----|------------|-------------|
|---3-3-3-3-3-3-|-2------|-------|-2-----3----|--3---------|-2-----------|
|---3-3-3-3-3-3-|-0------|-------|------------|------------|-------------|
|---1-1-1-1-1-1-|-0------|-------|------------|------------|-------------|
|---------------|-0------|-------|------------|------------|-------------|

tune your guitar down right and try it before you diss on it o.k.
----------------------------------------------------------------------------
                               lyrics

 verse#1                                        verse#2
 walk down the realm,                           So fed up, what's with the 
 hint to no one that this                       scenes?
 genaric bond exists.                           Observe and leave instead.
 Evil shows another side.                       This pitty wagon penetrates
                                                my skin,
 pre-chorus                                     so sensitive, makes me sick.
 And like before,makes no sence,
 never coming, always leaving right before,
 hooked on substance, dig in deeper, can't reveal...

 chorus                                             
 Why we leave well enough alone.                Bridge
 Never thought about the shame.                 The old and the aged crawl,
                                                never knew what hit.
                                                
                                                The old and the aged crawl,
                                                never knew what hit.
----------------------------------------------------------------------------
 i am not sure if these are right but i think they are good luck.
                            thats all she wrote!
----------------------------------------------------------------------------
and like i asked before, will you try it befor you diss on it o.k(that just
goes for all you jerks out there who just want to put people down, just get
off)
Suggest correction
Creating personal tab
Creating personal tab
You can edit any tab online and save it as your Personal.

You can edit, replace or remove any tab part or add personal notes – all changes will be seen only by you.

Personal tabs can be accessed anytime from any device, even offline.
Learn more »
Give kudos to tab author, rate the tab!
1 2 3 4 5
comments
print report bad tab
1 comment total.
0 reply
lightning4u2 10 Jul 22, 2007 03:04 PM

good job

guest
You may want to rate the tab now too:
select rating
Wanna post a correction for this tab? Suggest correction