Oops, an error
Loading. Please wait.

Wonder Whats Next bass

version 1
version 1

Whole song

Interactive

1,099 views 1 this week
4 commentsread comments
1 2 3 4 5
x 8
add to favorites
×
Save as Personal and add changes to this tab that will be seen only by you. Learn more ›
×
You can save this tab as Personal to edit and correct it or add notes. All changes will be seen only by you. Learn more »
launch autoscroll
font size
0
reset
guitar tuner
edit
Autoscroll
slow
fast
+/-
esc
set tempo
stop
Chevelle 
Wonder What's Next

Tabbed by: Caleb Loffer
Tuneing: Drop C

Here's the basic patterns.
It's so easy, u can figure out where to put stuff.

Verse:
F|--------------------------------------------------------------|
C|--------------------------------------------------------------|
G|--------------------------------------------------------------|
C|-5--1--5--1>----5--1--5--1x-1x--5--1--5--1>----5--1--5--1x1x1x|

Chrous:
F|------------|
C|------------|
G|------------|
C|-5--1--5--1-|

So mainly's it's just 5-1-5-1. Get the right palm-mutes and beat,
and it'll sound right. =]

            
            
Suggest correction
Creating personal tab
Creating personal tab
You can edit any tab online and save it as your Personal.

You can edit, replace or remove any tab part or add personal notes – all changes will be seen only by you.

Personal tabs can be accessed anytime from any device, even offline.
Learn more »
comments
print report bad tab
4 comments total. Showing first comments.
0 reply
Fat105 170 Aug 08, 2003 08:00 PM

this song is in low B. this tab sucks


C#------------
G#------------
E ------------
B ------------
F#------------
B -0-5-6-6p5--

0 reply
toxgoboom 72 Sep 23, 2006 11:59 AM

chevelle play in drop B tuning. this tab is horrible.

B|:-0-5-6-0-6-5-0-5-|-0-5-6-0-6-5-0-3-:|
p.o p.o p.o p.o

is the basic pattern. wow.

0 reply
toxgoboom 72 Sep 23, 2006 12:00 PM

ok so the p.o.'s got messed up. it's 6p0 then 6p5

guest
Wanna post a correction for this tab? Suggest correction