Oops, an error
Loading. Please wait.

Young Wicked tab

673 views 21 this week
no commentswrite comment
1 2 3 4 5
x 3
add to favorites
×
Save as Personal and add changes to this tab that will be seen only by you. Learn more ›
×
You can save this tab as Personal to edit and correct it or add notes. All changes will be seen only by you. Learn more »
launch autoscroll
font size
0
reset
how to read this tab
guitar tuner
edit
Autoscroll
slow
fast
+/-
esc
set tempo
stop
Drop B tuning


[Intro]

   with wah
C#|--------------------------------|--------------------------------|
G#|--------------------------------|--------------------------------|
E |--------------------------------|--------------------------------|
B |0-2-2-2-2-0-0-0-0-2-2-2-0-2-2-2-|0-2-2-2-2-0-0-0-0-2-2-2-2-------|
F#|--------------------------------|--------------------------------|
B |--------------------------------|--------------------------------|


C#|--------------------------------|--------------------------------|
G#|--------------------------------|--------------------------------|
E |--------------------------------|--------------------------------|
B |0-2-2-2-2-0-0-0-0-2-2-2-0-2-2-2-|0-2-2-2-3-2-2-2-0-3-3-3-3-------|
F#|--------------------------------|--------------------------------|
B |--------------------------------|--------------------------------|


   without wah
C#|--------------------------------|--------------------------------|
G#|--------------------------------|--------------------------------|
E |--------------------------------|--------------------------------|
B |0-2-2-2-2-0-0-0-0-2-2-2-0-2-2-2-|0-2-2-2-2-0-0-0-0-2-2-2-2-------|
F#|0-2-2-2-2-0-0-0-0-2-2-2-0-2-2-2-|0-2-2-2-2-0-0-0-0-2-2-2-2-------|
B |0-2-2-2-2-0-0-0-0-2-2-2-0-2-2-2-|0-2-2-2-2-0-0-0-0-2-2-2-2-------|
   ^       ^       ^       ^        ^       ^       ^
      
C#|--------------------------------|--------------------------------|
G#|--------------------------------|--------------------------------|
E |--------------------------------|--------------------------------|
B |0-2-2-2-2-0-0-0-0-2-2-2-0-2-2-2-|0-2-2-2-3-2-2-2-0-3-3-3-3-------|
F#|0-2-2-2-2-0-0-0-0-2-2-2-0-2-2-2-|0-2-2-2-3-2-2-2-0-3-3-3-3-------|
B |0-2-2-2-2-0-0-0-0-2-2-2-0-2-2-2-|0-2-2-2-3-2-2-2-0-3-3-3-3-------|
   ^       ^       ^       ^        ^       ^       ^


[Verse]

C#|--------------------------------|--------------------------------|
G#|--------------------------------|--------------------------------|
E |--------------------------------|--------------------------------|
B |--------------------------------|--------------------------------|
F#|0h2---x---x---x---x---x---x-x-x-|0h2---x---x---x---x---x---x-x-x-|
B |0h2---x---x---x---x---x---x-x-x-|0h2---x---x---x---x---x---x-x-x-|

 
C#|--------------------------------|--------------------------------|
G#|--------------------------------|--------------------------------|
E |--------------------------------|--------------------------------|
B |--------------------------------|--------------------------------|
F#|0h2---x---x---x---x---x---x-x-x-|0h2---x---x---x-x-x-x-x-x-x-x-x-| slide down neck 
B |0h2---x---x---x---x---x---x-x-x-|0h2---x---x---x-x-x-x-x-x-x-x-x-| hitting harmonics
 

[Chorus]

C#|--------------------------------|--------------------------------|
G#|--------------------------------|--------------------------------|
E |--------------------------------|--------------------------------|
B |0-2-2-2-2-0-0-0-0-2-2-2-0-2-2-2-|0-2-2-2-2-0-0-0-0-2-2-2-2-------|
F#|0-2-2-2-2-0-0-0-0-2-2-2-0-2-2-2-|0-2-2-2-2-0-0-0-0-2-2-2-2-------|
B |0-2-2-2-2-0-0-0-0-2-2-2-0-2-2-2-|0-2-2-2-2-0-0-0-0-2-2-2-2-------|
   ^       ^       ^       ^        ^       ^       ^
      
C#|--------------------------------|--------------------------------|
G#|--------------------------------|--------------------------------|
E |--------------------------------|--------------------------------|
B |0-2-2-2-2-0-0-0-0-2-2-2-0-2-2-2-|0-2-2-2-3-2-2-2-0-3-3-3-3-3-3-3-|
F#|0-2-2-2-2-0-0-0-0-2-2-2-0-2-2-2-|0-2-2-2-3-2-2-2-0-3-3-3-3-3-3-3-|
B |0-2-2-2-2-0-0-0-0-2-2-2-0-2-2-2-|0-2-2-2-3-2-2-2-0-3-3-3-3-3-3-3-|
   ^       ^       ^       ^        ^       ^       ^

C#|--------------------------------|--------------------------------|
G#|--------------------------------|--------------------------------|
E |--------------------------------|--------------------------------|
B |0-2-2-2-2-0-0-0-0-2-2-2-0-2-2-2-|0-2-2-2-2-0-0-0-0-2-2-2-2-------|
F#|0-2-2-2-2-0-0-0-0-2-2-2-0-2-2-2-|0-2-2-2-2-0-0-0-0-2-2-2-2-------|
B |0-2-2-2-2-0-0-0-0-2-2-2-0-2-2-2-|0-2-2-2-2-0-0-0-0-2-2-2-2-------|
   ^       ^       ^       ^        ^       ^       ^
      
C#|--------------------------------|--------------------------------|
G#|--------------------------------|--------------------------------|
E |--------------------------------|--------------------------------|
B |0-2-2-2-2-0-0-0-0-2-2-2-0-2-2-2-|0-2-2-2-3-2-2-2-0-3-3-3-3-3-----|
F#|0-2-2-2-2-0-0-0-0-2-2-2-0-2-2-2-|0-2-2-2-3-2-2-2-0-3-3-3-3-3-----|
B |0-2-2-2-2-0-0-0-0-2-2-2-0-2-2-2-|0-2-2-2-3-2-2-2-0-3-3-3-3-3-----|
   ^       ^       ^       ^        ^       ^       ^


[Break]

   with wah
C#|--------------------------------|--------------------------------|
G#|--------------------------------|--------------------------------|
E |--------------------------------|--------------------------------|
B |0-2-2-2-2-0-0-0-0-2-2-2-0-2-2-2-|0-2-2-2-2-0-0-0-0-2-2-2-0-2-2-2-|
F#|--------------------------------|--------------------------------|
B |--------------------------------|--------------------------------|


C#|--------------------------------|--------------------------------|
G#|--------------------------------|--------------------------------|
E |--------------------------------|--------------x---x---x---x-----|
B |0-2-2-2-2-0-0-0-0-2-2-2-0-2-2-2-|0-2-2-2-3-2-2-x---x---x---x-----| Scrape pick up neck
F#|--------------------------------|--------------x---x---x---x-----| on last beat
B |--------------------------------|--------------------------------|


[Verse]

C#|--------------------------------|--------------------------------|
G#|--------------------------------|--------------------------------|
E |--------------------------------|--------------------------------|
B |0-2-2-2-2-0-0-0-0-2-2-2-0-2-2-2-|0-2-2-2-2-0-0-0-0-2-2-2-2-------|
F#|0-2-2-2-2-0-0-0-0-2-2-2-0-2-2-2-|0-2-2-2-2-0-0-0-0-2-2-2-2-------|
B |0-2-2-2-2-0-0-0-0-2-2-2-0-2-2-2-|0-2-2-2-2-0-0-0-0-2-2-2-2-------|
   ^       ^       ^       ^        ^       ^       ^
      
C#|--------------------------------|--------------------------------|
G#|--------------------------------|--------------------------------|
E |--------------------------------|--------------------------------|
B |0-2-2-2-2-0-0-0-0-2-2-2-0-2-2-2-|0-2-2-2-3-2-2-2-0-3-3-3-3-3-3-3-|
F#|0-2-2-2-2-0-0-0-0-2-2-2-0-2-2-2-|0-2-2-2-3-2-2-2-0-3-3-3-3-3-3-3-|
B |0-2-2-2-2-0-0-0-0-2-2-2-0-2-2-2-|0-2-2-2-3-2-2-2-0-3-3-3-3-3-3-3-|
   ^       ^       ^       ^        ^       ^       ^

C#|--------------------------------|--------------------------------|
G#|--------------------------------|--------------------------------|
E |--------------------------------|--------------------------------|
B |0-2-2-2-2-0-0-0-0-2-2-2-0-2-2-2-|0-2-2-2-2-0-0-0-0-2-2-2-2-------|
F#|0-2-2-2-2-0-0-0-0-2-2-2-0-2-2-2-|0-2-2-2-2-0-0-0-0-2-2-2-2-------|
B |0-2-2-2-2-0-0-0-0-2-2-2-0-2-2-2-|0-2-2-2-2-0-0-0-0-2-2-2-2-------|
   ^       ^       ^       ^        ^       ^       ^
      
C#|--------------------------------|--------------------------------|
G#|--------------------------------|--------------------------------|
E |--------------------------------|--------------------------------|
B |0-2-2-2-2-0-0-0-0-2-2-2-0-2-2-2-|0-2-2-2-3-2-2-2-0-3-3-3-3-------|
F#|0-2-2-2-2-0-0-0-0-2-2-2-0-2-2-2-|0-2-2-2-3-2-2-2-0-3-3-3-3-------|
B |0-2-2-2-2-0-0-0-0-2-2-2-0-2-2-2-|0-2-2-2-3-2-2-2-0-3-3-3-3-------|


C#|--------------------------------|--------------------------------|
G#|--------------------------------|--------------------------------|
E |--------------------------------|--------------------------------|
B |--------------------------------|--------------------------------|
F#|0h2---x---x---x---x---x---x-x-x-|0h2---x---x---x---x---x---x-x-x-|
B |0h2---x---x---x---x---x---x-x-x-|0h2---x---x---x---x---x---x-x-x-|


C#|--------------------------------|--------------------------------|
G#|--------------------------------|--------------------------------|
E |--------------------------------|--------------------------------|
B |--------------------------------|--------------------------------|
F#|0h2---x---x---x---x---x---x-x-x-|0h2---x---x---x-x-x-x-x-x-x-x-x-| slide down neck
B |0h2---x---x---x---x---x---x-x-x-|0h2---x---x---x-x-x-x-x-x-x-x-x-| hitting harmonics


[Chorus]

C#|--------------------------------|--------------------------------|
G#|--------------------------------|--------------------------------|
E |--------------------------------|--------------------------------|
B |0-2-2-2-2-0-0-0-0-2-2-2-0-2-2-2-|0-2-2-2-2-0-0-0-0-2-2-2-2-------|
F#|0-2-2-2-2-0-0-0-0-2-2-2-0-2-2-2-|0-2-2-2-2-0-0-0-0-2-2-2-2-------|
B |0-2-2-2-2-0-0-0-0-2-2-2-0-2-2-2-|0-2-2-2-2-0-0-0-0-2-2-2-2-------|
   ^       ^       ^       ^        ^       ^       ^
      
C#|--------------------------------|--------------------------------|
G#|--------------------------------|--------------------------------|
E |--------------------------------|--------------------------------|
B |0-2-2-2-2-0-0-0-0-2-2-2-0-2-2-2-|0-2-2-2-3-2-2-2-0-3-3-3-3-3-3-3-|
F#|0-2-2-2-2-0-0-0-0-2-2-2-0-2-2-2-|0-2-2-2-3-2-2-2-0-3-3-3-3-3-3-3-|
B |0-2-2-2-2-0-0-0-0-2-2-2-0-2-2-2-|0-2-2-2-3-2-2-2-0-3-3-3-3-3-3-3-|
   ^       ^       ^       ^        ^       ^       ^       ^

C#|--------------------------------|--------------------------------|
G#|--------------------------------|--------------------------------|
E |--------------------------------|--------------------------------|
B |0-2-2-2-2-0-0-0-0-2-2-2-0-2-2-2-|0-2-2-2-2-0-0-0-0-2-2-2-2-------|
F#|0-2-2-2-2-0-0-0-0-2-2-2-0-2-2-2-|0-2-2-2-2-0-0-0-0-2-2-2-2-------|
B |0-2-2-2-2-0-0-0-0-2-2-2-0-2-2-2-|0-2-2-2-2-0-0-0-0-2-2-2-2-------|
   ^       ^       ^       ^        ^       ^       ^
      
C#|--------------------------------|--------------------------------|
G#|--------------------------------|--------------------------------|
E |--------------------------------|--------------------------------|
B |0-2-2-2-2-0-0-0-0-2-2-2-0-2-2-2-|0-2-2-2-3-2-2-2-0-3-3-3-3-------|
F#|0-2-2-2-2-0-0-0-0-2-2-2-0-2-2-2-|0-2-2-2-3-2-2-2-0-3-3-3-3-------|
B |0-2-2-2-2-0-0-0-0-2-2-2-0-2-2-2-|0-2-2-2-3-2-2-2-0-3-3-3-3-------|
   ^       ^       ^       ^        ^       ^       ^


[Bridge]

   w/ wah
C#|13N-----------------------------|13N-------------------17N-------|
G#|--------------------------------|--------------------------------|
E |--------------------------------|--------------------------------|
B |--------------------------------|--------------------------------|
F#|--------------------------------|--------------------------------|
B |--------------------------------|--------------------------------|
  |w/ wah
C#|--------------------------------|--------------------------------|
G#|--------------------------------|--------------------------------|
E |--------------------------------|--------------------------------|
B |3p0-3p0-3p0-3p0-3p0-3p0-2h3p2p0-|3p0-3p0-3p0-3p0-3p0-3p0-2h3p2p0-|
F#|--------------------------------|--------------------------------|
B |--------------------------------|--------------------------------|


C#|12N-----------------------------|12N---------------10N-----------|
G#|--------------------------------|--------------------------------|
E |--------------------------------|--------------------------------|
B |--------------------------------|--------------------------------|
F#|--------------------------------|--------------------------------|
B |--------------------------------|--------------------------------|
  |
C#|--------------------------------|--------------------------------|
G#|--------------------------------|--------------------------------|
E |--------------------------------|--------------------------------|
B |3p0-3p0-3p0-3p0-3p0-3p0-2h3p2p0-|3p0-3p0-3p0-3p0-3p0-3p0-2h3p2p0-|
F#|--------------------------------|--------------------------------|
B |--------------------------------|--------------------------------|


C#|13N-----------------------------|10N---12N-----------------------|
G#|--------------------------------|------------------------9N------|
E |--------------------------------|--------------------------------|
B |--------------------------------|--------------------------------|
F#|--------------------------------|--------------------------------|
B |--------------------------------|--------------------------------|
  |
C#|--------------------------------|--------------------------------|
G#|--------------------------------|--------------------------------|
E |--------------------------------|--------------------------------|
B |0h2~-----0---2~-----0---2h3p2p0-|0h2~-----0---2~-----0---2h3p2p0-|
F#|--------------------------------|--------------------------------|
B |--------------------------------|--------------------------------|
 

C#|--------------------------------|--------------------------------|
G#|9N~~~~~~~~~~~~~~~~~~~~~~~~~~~~~~|9N------------------------------|
E |--------------------------------|---------10N-----9N-------------|
B |--------------------------------|--------------------------------|
F#|--------------------------------|--------------------------------|
B |--------------------------------|--------------------------------|
  |
C#|--------------------------------|--------------------------------|
G#|--------------------------------|--------------------------------|
E |--------------------------------|--------------------------------|
B |2p0-2p0-2p0-2p0-2p0-2p0-2h3p2p0-|2p0-2p0-2p0-2p0-2p0-2p0-2h3p2p0-|
F#|--------------------------------|--------------------------------|
B |--------------------------------|--------------------------------|


C#|13N-----------------------------|10N-----------------------------|
G#|--------------------------------|--------------------------------|
E |--------------------------------|--------------------------------|
B |--------------------------------|--------------------------------|
F#|--------------------------------|--------------------------------|
B |--------------------------------|--------------------------------|
  |
C#|--------------------------------|--------------------------------|
G#|--------------------------------|--------------------------------|
E |--------------------------------|--------------------------------|
B |3p0-3p0-3p0-3p0-3p0-3p0-2h3p2p0-|3p0-3p0-3p0-3p0-3p0-3p0-2h3p2p0-|
F#|--------------------------------|--------------------------------|
B |--------------------------------|--------------------------------|


C#|17N-----------------------------|17N-----------------10N---12N---|
G#|--------------------------------|--------------------------------|
E |--------------------------------|--------------------------------|
B |--------------------------------|--------------------------------|
F#|--------------------------------|--------------------------------|
B |--------------------------------|--------------------------------|
  |
C#|--------------------------------|--------------------------------|
G#|--------------------------------|--------------------------------|
E |--------------------------------|--------------------------------|
B |3p0-3p0-3p0-3p0-3p0-3p0-2h3p2p0-|3p0-3p0-3p0-3p0-3p0-2gb~~~~~~~~~|
F#|--------------------------------|--------------------------------|
B |--------------------------------|--------------------------------|


C#|13N-----------------------------|--------------------------------|
G#|--------------------------------|9N------------------------------|
E |--------------------------------|--------------------9N----------|
B |--------------------------------|--------------------------------|
F#|--------------------------------|--------------------------------|
B |--------------------------------|--------------------------------|
  |
C#|--------------------------------|--------------------------------|
G#|--------------------------------|--------------------------------|
E |--------------------------------|--------------------------------|
B |2p0-2p0-2p0-2p0-2p0-2p0-2h3p2p0-|2p0-2p0-2p0-2p0-2p0-2p0-2h5p2p0-|
F#|--------------------------------|--------------------------------|
B |--------------------------------|--------------------------------|
 

C#|13N---------12N-----------------|7N~-----------------------------|
G#|--------------------------------|--------------------------------|
E |--------------------------------|--------------------------------|
B |--------------------------------|--------------------------------|
F#|--------------------------------|--------------------------------|
B |--------------------------------|--------------------------------|
  |
C#|--------------------------------|--------------------------------|
G#|--------------------------------|--------------------------------|
E |--------------------------------|--------------------------------|
B |2p0-2p0-2p0-2p0-2p0-2p0-2h3p2p0-|2p0-2p0-2p0-2p0-2p0-2gb~~~~~~~~~|
F#|--------------------------------|--------------------------------|
B |--------------------------------|--------------------------------|


[Solo]

   w/ wah
C#|--------------------------------|--------------------------------|
G#|------------------------8N------|--------------------------------|
E |--------------------------------|--------9N----------7N--10N-----|
B |9N------------------10N---------|--------------------------------|
F#|--------------------------------|--------------------------------|
B |--------------------------------|--------------------------------|


C#|--------------------------------|--------------------------------|
G#|6-5---5-----6-5---5-------------|6-5---5-----------------5~------|
E |----7-----------7---------------|----7---7-5-7-5-4-5-4-----------|
B |--------------------------------|----------------------7---------|
F#|--------------------------------|--------------------------------|
B |--------------------------------|--------------------------------|

    
C#|--------------------------------|--------------------------------|
G#|8-6-5-6-5---5-------------------|8-6-5-6-5---5-------------------|
E |----------7---7-5-7-5-4-5-4-----|----------7---7-5-7-5-4~--------|
B |--------------------------------|--------------------------------|
F#|--------------------------------|--------------------------------|
B |--------------------------------|--------------------------------|


C#|--------------------------------|5-----7-----8---10b12~~~--------|
G#|------------------5-----6---8---|--------------------------------|
E |4-----5-----7-------------------|--------------------------------|
B |--------------------------------|--------------------------------|
F#|--------------------------------|--------------------------------|
B |--------------------------------|--------------------------------|


[Chorus]

C#|12------------------------------|12------------------------------|
G#|15b17---------------------------|15b17---------------------------|
E |--------------------------------|--------------------------------|
B |--------------------------------|--------------------------------|
F#|--------------------------------|--------------------------------|
B |--------------------------------|--------------------------------|
  |
C#|--------------------------------|--------------------------------|
G#|--------------------------------|--------------------------------|
E |--------------------------------|--------------------------------|
B |0-2-2-2-2-0-0-0-0-2-2-2-0-2-2-2-|0-2-2-2-2-0-0-0-0-2-2-2-2-------|
F#|0-2-2-2-2-0-0-0-0-2-2-2-0-2-2-2-|0-2-2-2-2-0-0-0-0-2-2-2-2-------|
B |0-2-2-2-2-0-0-0-0-2-2-2-0-2-2-2-|0-2-2-2-2-0-0-0-0-2-2-2-2-------|
   ^       ^       ^       ^        ^       ^       ^

C#|12------------------------------|12------------------------------|
G#|15b17---------------------------|15b17---------------------------|
E |--------------------------------|--------------------------------|
B |--------------------------------|--------------------------------|
F#|--------------------------------|--------------------------------|
B |--------------------------------|--------------------------------|
  |      
C#|--------------------------------|--------------------------------|
G#|--------------------------------|--------------------------------|
E |--------------------------------|--------------------------------|
B |0-2-2-2-2-0-0-0-0-2-2-2-0-2-2-2-|0-2-2-2-3-2-2-2-0-3-3-3-3-3-3-3-|
F#|0-2-2-2-2-0-0-0-0-2-2-2-0-2-2-2-|0-2-2-2-3-2-2-2-0-3-3-3-3-3-3-3-|
B |0-2-2-2-2-0-0-0-0-2-2-2-0-2-2-2-|0-2-2-2-3-2-2-2-0-3-3-3-3-3-3-3-|
   ^       ^       ^       ^        ^       ^       ^       ^

C#|12------------------------------|12------------------------------|
G#|15b17---------------------------|15b17---------------------------|
E |--------------------------------|--------------------------------|
B |--------------------------------|--------------------------------|
F#|--------------------------------|--------------------------------|
B |--------------------------------|--------------------------------|
  |
C#|--------------------------------|--------------------------------|
G#|--------------------------------|--------------------------------|
E |--------------------------------|--------------------------------|
B |0-2-2-2-2-0-0-0-0-2-2-2-0-2-2-2-|0-2-2-2-2-0-0-0-0-2-2-2-2-------|
F#|0-2-2-2-2-0-0-0-0-2-2-2-0-2-2-2-|0-2-2-2-2-0-0-0-0-2-2-2-2-------|
B |0-2-2-2-2-0-0-0-0-2-2-2-0-2-2-2-|0-2-2-2-2-0-0-0-0-2-2-2-2-------|
   ^       ^       ^       ^        ^       ^       ^
      
C#|12------------------------------|12------------------------------|
G#|15b17---------------------------|15b17---------------------------|
E |--------------------------------|--------------------------------|
B |--------------------------------|--------------------------------|
F#|--------------------------------|--------------------------------|
B |--------------------------------|--------------------------------|
  |
C#|--------------------------------|--------------------------------|
G#|--------------------------------|--------------------------------|
E |--------------------------------|--------------------------------|
B |0-2-2-2-2-0-0-0-0-2-2-2-0-2-2-2-|0-2-2-2-3-2-2-2-0-3-3-3-3-------|
F#|0-2-2-2-2-0-0-0-0-2-2-2-0-2-2-2-|0-2-2-2-3-2-2-2-0-3-3-3-3-------|
B |0-2-2-2-2-0-0-0-0-2-2-2-0-2-2-2-|0-2-2-2-3-2-2-2-0-3-3-3-3-------|
   ^       ^       ^       ^        ^       ^       ^


************************************

| /    Slide up
| \    Slide down
| ^    Accent
| h    Hammer-on
| x    Dead note
| N    Tremolo pick
| p    Pull-off
| gb   Gradual bend
| gbr  Gradual bend and release
| PM   Palm mute

************************************

            
            
Suggest correction
Creating personal tab
Creating personal tab
You can edit any tab online and save it as your Personal.

You can edit, replace or remove any tab part or add personal notes – all changes will be seen only by you.

Personal tabs can be accessed anytime from any device, even offline.
Learn more »
Give kudos to tab author, rate the tab!
1 2 3 4 5
comments
print report bad tab
guest
You may want to rate the tab now too:
select rating
Wanna post a correction for this tab? Suggest correction