Oops, an error
Loading. Please wait.

Breso Bass

version 1
version 1

Whole song

Interactive

569 views 3 this week
2 commentsread comments
1 2 3 4 5
1 last vote to show rating
add to favorites
launch autoscroll
font size
0
reset
guitar tuner
×
Best way to learn
"Breso"
Autoscroll
slow
fast
+/-
esc
set tempo
stop
Author
-----------------------------------------------------------------------------
			     BRESO - Chewing On Tinfoil
-----------------------------------------------------------------------------
Tabbed By : chewbacca97

Band Website: http://chewingontinfoil.bandcamp.com/

Tuning: Standard

No bass until 0:19

0:19 Intro
G|----------------------|
D|----------------------|
A|----------------------|
E|----5-5----777--------|

Verse A
G|-----------------4--------------------------------------------------------|
D|-----------6-----------6-----------------4-----------------------6--------|
A|-----7-----------------------------6-----------6-----------7-----------7--|
E|-----------------------------7-----------------------9--------------------|

G|-----------------------------|
D|-----7-----6-----------6-----| X2
A|-----------------9-----------|
E|-----------------------------|

Verse B
G|--------------------------------------------------------------------------|
D|--------------------------------------------------------------------------|
A|-----77--------------------------------77---------------------------------|
E|------------77-----99----55-77----------------77----99-----555-777--------|

Verse A X2

Chorus
G|------------------|
D|------------------|
A|-----4~--2~--0~---| X4
E|------------------|

Verse A X2
Verse B
Verse A X2
Chorus  X4

Break

So where did the time go who left the light on
G|---------------------------------------------------|
D|---------------------------------------------------|
A|---------------------------------------------------| X2
E|----------------------------------------------0~---|

  Where did the time go who left the light on, where did the time go  
G|--------------------------------------------------------------------------|
D|--------------------------------------------------------------------------|
A|--4~------------------2~--------------------------------------------------|
E|----------------------------------------------0~--------------------------|

   who left the light on
G|-------------------------|
D|-------------------------|
A|--2~---------------------|
E|-------------------------|

chorus X5






| /  slide up
| \  slide down
| h  hammer-on
| p  pull-off
| ~  vibrato
| +  harmonic
| x  Mute note
=============================================================================
Suggest correction
Give kudos to tab author, rate the tab!
1 2 3 4 5
comments
print report bad tab
2 comments total.
0 reply
n0r3mac 32 Aug 11, 2012 09:42 AM

I feel it's easier to play it this way

G----1--4--1-----------------------------
D--2------------1--4--1-------2--6--2----
A-------------2------------4--------------
E----------------------------------------

0 reply
AtrumCimex 37 Aug 20, 2015 04:06 PM

Lack of accuracy. Tab incomplete. Clearly wrong. The tab is clearly missing whole parts of the song and many of the part and notes included are wrong. There's no way to expand on the tab it should be thrown and replaced with and new one.

guest
You may want to rate the tab now too:
select rating
Wanna post a correction for this tab? Suggest correction