Oops, an error
Loading. Please wait.

Didnt I Tab

726 views 1 this week
no commentswrite comment
1 2 3 4 5
please rate
add to favorites
launch autoscroll
font size
0
reset
how to read this tab
guitar tuner
Autoscroll
slow
fast
+/-
esc
set tempo
stop
Help us to improve Ultimate-Guitar.com Take our survey!
×
intro.

|-----------------------------|
|-----------------------------|
|---5/7----------3/5----------|
|---5/7----33----3/5----55----|
|---3/5----33----1/3----55----|
|----------11-----------33----|

up until...

do you think of me at all, cause you're the one who made me fall

-----------------------------------------------------------|
-----------------------------------------------------------|
---3333333333333333----5555555555555555-------333--555-----|
---3333333333333333----5555555555555555-------333--555-----|
---1111111111111111----3333333333333333-------111--333-----|
-----------------------------------------------------------|

and you tell me ..

---------------------------------|
---------------------------------|
---777-----------555-------------|
---777----333----555----5-3------|  x2
---555----333----333----5-3------|
----------111-----------3-1------|


didnt i wait all day for you...

|--------------------------------|
|--------------------------------|
|---5/7777----------55-----------|
|---5/7777----33----55----5--3---| x2
|---3/5555----33----33----5--3---|
|-------------11----------3--1---|

didn't i, didn't i, give a little more than you could take

---------------------------------|
---------------------------------|
---777-----------555-------------|
---777----333----555----5-3------|  x2
---555----333----333----5-3------|
----------111-----------3-1------|

i feel a little bit sorry for you..

|-----------------------------|
|-----------------------------|
|---5/7----------55-----------|
|---5/7----33----55----55-----|
|---3/5----33----33----55-----|
|----------11----------33-----|

did you think of me at all, cause you're the one who took the fall

-----------------------------------------------------------|
-----------------------------------------------------------|
---3333333333333333----5555555555555555-------333--555-----|
---3333333333333333----5555555555555555-------333--555-----|
---1111111111111111----3333333333333333-------111--333-----|
-----------------------------------------------------------|

and you tell me ..

---------------------------------|
---------------------------------|
---777-----------555-------------|
---777----333----555----5-3------|  x2
---555----333----333----5-3------|
----------111-----------3-1------|


didnt i wait all day for you...

|--------------------------------|
|--------------------------------|
|---5/7777----------55-----------|
|---5/7777----33----55----5--3---| x2
|---3/5555----33----33----5--3---|
|-------------11----------3--1---|

didn't i, didn't i, give a little more than you could take...

---------------------------------|
---------------------------------|
---777-----------555-------------|
---777----333----555----5-3------|  x2
---555----333----333----5-3------|
----------111-----------3-1------|

summer rain, wash away...

-----------------------------------------------|
-----------------------------------------------|
---33333333------------55555555-------2--------|
---33333333----333-----55555555----3--2--------|
---11111111----333-----33333333----3--0--------|
---------------111-----------------1-----------|


all the pain gone away...

-----------------------------------|
-----------------------------------|
---33333333------------55555555----|
---33333333----333-----55555555----|
---11111111----333-----33333333----|
---------------111-----------------|

find a way, make a change

-----------------------------------------------|
-----------------------------------------------|
---33333333------------55555555-------2--------|
---33333333----333-----55555555----3--2--------|
---11111111----333-----33333333----3--0--------|
---------------111-----------------1-----------|

for you and i to love...

------------------------------------------------|
------------------------------------------------|
---3333333333333333----55555555------3--5-------|
---3333333333333333----55555555------3--5-------|
---1111111111111111----33333333------1--3-------|
------------------------------------------------|

for you and i to walk away..
[solo]

---8h10-----8-8-----------------------8-10-10----12-8-8-5---3p5-3-----1-|
-----------------10-8---8p10-8-6-----------------------------------3----|
------------------------------------------------------------------------|
------------------------------------------------------------------------|
------------------------------------------------------------------------|
------------------------------------------------------------------------|

[solo cont.]

-------1-1------1-1------1------------3-1-----|
---1h3------1h3------1h3---1------1h3------3--|
----------------------------------------------|
----------------------------------------------|
----------------------------------------------|
----------------------------------------------|


oooh, whoa, gimme jus a little bit of it

|-----------------------------------------|
|-----------------------------------------|
|---77777777-----------55555555-----------|
|---55555555----333----55555555----5--3---| x2
|---55555555----333----33333333----5--3---|
|---------------111----------------3--1---|

didnt i wait all day for you...

|--------------------------------|
|--------------------------------|
|---5/7777----------55-----------|
|---5/7777----33----55----5--3---| x2
|---3/5555----33----33----5--3---|
|-------------11----------3--1---|

didn't i, didn't i, give a little more than you could take...

---------------------------------|
---------------------------------|
---777-----------555-------------|
---777----333----555----5-3------|  x2
---555----333----333----5-3------|
----------111-----------3-1------|
Suggest correction What's this?
You can suggest a correction to this tab. Community and Mods will review your correction and vote to approve or reject it.
comments
We did not receive enough feedback on this tab! Please rate:
print report bad tab
1 2 3 4 5
I want to post or [tab]
guest
You may want to rate the tab now too:
select rating
Please do not post tabs as comments. Select "correction" instead!