Oops, an error
Loading. Please wait.

Full Circle tab

version 1
version 1

Whole song

1,005 views 1 this week
no commentswrite comment
1 2 3 4 5
3 more votes to show rating
add to favorites
×
Save as Personal and add changes to this tab that will be seen only by you. Learn more ›
×
You can save this tab as Personal to edit and correct it or add notes. All changes will be seen only by you. Learn more »
launch autoscroll
font size
0
reset
how to read this tab
guitar tuner
edit
Autoscroll
slow
fast
+/-
esc
set tempo
stop
Author
Full Circle by cheyenne kimball

three guitars are playing. guitar 1 does the plucking, while the 2nd guitar does more
and a bit plucking. guitar 3 is quite tricky so i didn't include it here...

*  - strum once
G  - 23xx33
C/B  - x32x13
Em  - x22xxx
Cadd9  - x32x33
D  - xxx232

intro:
Guitar 1, play the tab below. guitar 2, strum: G - Cadd9 - Em - Cadd9 twice

                  G                                C/B                         Em
             D
----------3---3---3------------3---3---3------------0--0--0----------3---2---2------|
------------3---3---3-------------1---1---1-------------0--0--0----------3---3---3--|
-------0---------------------0--------------------0------------------2--------------|
-----0---------------------2--------------------2-------------------0---------------|
---2---------------------3--------------------2-------------------0-----------------|
------------------------------------------------------------------------------------|

                  G                                C/B                         Em
             Cadd9
----------3---3---3------------3---3---3------------0--0--0----------3---3--------------|
------------3---3---3-------------1---1---1-------------0--0--0----------3--------------|
-------0---------------------0--------------------0------------------0------------------|
-----0---------------------2--------------------2-------------------2-------------------|
---2---------------------3--------------------2-------------------3---------------------|
----------------------------------------------------------------------------------------|


guitar 1, stop playing. guitar 2, strum.

    G                    Cadd9                Em                            Cadd9
take everything out just put it back right where you found it


guitar 1, play tab below. guitar 2, strum: G - Cadd9 - Em - Cadd9
          G                                   Cadd9                            Em
                      Cadd9
---------3-------------------------3-----------------------0-------------------------3----|
-------3-----------------------------3-------------------0-----------------------------3--|
-----0--------------------------0---------------------0---------------------------0-------|
---0--------------------------2---------------------2----------------------------2--------|
----------------------------3---------------------------------------------------3---------|
------------------------------------------------------------------------------------------|
you, your hands in your jeans, we're you waiting for me? cause that's how i found you


guitar 1, play tab. guitar 2, strum the chords inside the parenthesis ( ... )

            Em                            Em                            D
----------0---------------------0----------------3---2--2-------------|
------------0---------------------0----------------3---3--3-----------|
-------0---------------------0----------------2-----------------------|
-----2---------------------2----------------0-------------------------|
---2---------------------2----------------0---------------------------|
----------------------------------------------------------------------|
    (Em)                          (D)                    (Cadd9)
every word seemed to roll off your tongue like honey on my lips

        Em                Em                 D
---------0----------2--------------2-----------|
----------------------------------3------------|
------0----------0------------2----------------|
----2----------2------------0------------------|
--2----------2------------0--------------------|
-----------------------------------------------|
 (Em)           (D)                (Cadd9*)
I never thought i could get enough

guitar 1, play tab below. guitar 2, stop playing. start playing only when there are
inside a parenthesis...
            G                           Cadd9                    Em
     Cadd9
---3---3---3---3-----3---3---3---3-----0---0---0---0-----------3----------3----------|
-----------------------------------------------------------------------3----------3--|
-------------------------------------------------------------------------------------|
------------------------------------------------------------------2---------2--------|
-----2---2---2---2-----3---3---3---3------2---2---2---2----3----------3--------------|
-------------------------------------------------------------------------------------|
you took me around the block but i couldn't stop i thought it was real
the rush so intoxicated i look back and i hate it that i couldn't tell

         Em                          Em                                 D
----------0------------------0----------------------3---2---2---------------|
------------0-------------------0---------------------3----3---3------------|
-------0------------------0-----------------------2-------------------------|
-----2------------------2-----------------------0---------------------------|
---2------------------2-----------------------0-----------------------------|
----------------------------------------------------------------------------|
   (Em)                           (D)                          (Cadd9)
i'm lying alone on the floor just laughin' at myself

          Em                           Em                             D
----------0------------------0----------------------3---2----------------------|
------------0-------------------0---------------------3----3--3----------------|
-------0------------------0-----------------------2--------------(2-2-2)-------|
-----2------------------2-----------------------0------------------------------|
---2------------------2-----------------------0--------------------------------|
-------------------------------------------------------------------------------|
   (Em)           (D)                     (Cadd9)
how could i ever go back for more?

       G                                Cadd9                  Em                     Cadd9           Cadd9
----------3--3--3-----------3--3--3-----------0--0--0----------3--3--3-----------3--3--3----|
------------3--3--3-----------3--3--3-----------0--0--0----------3--3--3-----------3--3--3--|
-------0------------------0-----------------0------------------0-----------------0----------|
-----0------------------2------------------2------------------2-----------------2-----------|
---2------------------3------------------2------------------3-----------------3-------------|
--------------------------------------------------------------------------------------------|
(G)                   (Cadd9)         (Em)                        (Cadd9)
put everything back that you took out right when it started
                 (Em)           (D)          (Cadd9)
when we started
                 (Em)           (D)          (Cadd9)
when we started
(Em)              (D)                     (Cadd9)
how can i get back what you can't give out again
(Em)              (D)               (Cadd9)
how can i face my mother howcan i face my friends
(Em)                  (D)                 (Cadd9)
how can i look in the mirror and try to love again
(Em*)             (D*)                   (Cadd9*)
how can i get back what you can't give out again
(Em*)             (D*)                   (Cadd9*)               (Cadd9*)
how can i get back what you can't give out again


guitar 1 and guitar 2 play together for the interlude of the song...

guitar 1
                 G                              Cadd9                  Em
        Cadd9
---3--------3----------3----------3---------0---------0---------3---------3--------|
-------3----------3----------3---------3---------0---------0---------3----------3--|
-----------------------------------------------------------------------------------|
-----0---0----0----0----2----2----2----2----2----2----2----2----2----2----2--------|
-----------------------------------------------------------------------------------|
-----------------------------------------------------------------------------------|

guitar 2
----------------------1h0-------------------------------------------|
--2s3-----------2s3-------1-----------2s3--1------------------------|
-------3--5--3--------------3--5--3----------3--5--3----------------|
--------------------------------------------------------------------|
--------------------------------------------------------------------|
--------------------------------------------------------------------|


                 G                              Cadd9                  Em
        Cadd9
---3--------3----------3----------3---------0---------0---------3---------3--------|
-------3----------3----------3---------3---------0---------0---------3----------3--|
-----------------------------------------------------------------------------------|
-----0---0----0----0----2----2----2----2----2----2----2----2----2----2----2--------|
-----------------------------------------------------------------------------------|
-----------------------------------------------------------------------------------|
take your deepest breath i just let it out i will be stronger

                 G                              Cadd9                  Em
        Cadd9
---3--------3----------3----------3---------0---------0--------------------3----------3-----|
-------3----------3----------3---------3---------0---------0----------3---------3-----3-----|
----------------------------------------------------------------------0----0---0----0--0----|
-----0---0----0----0----2----2----2----2----2----2----2--------2--------------------2-------|
------------------------------------------------------------------3----------------------3--|
--------------------------------------------------------------------------------------------|
you took everything out i put it back just where you found it

            
            
Suggest correction
Creating personal tab
Creating personal tab
You can edit any tab online and save it as your Personal.

You can edit, replace or remove any tab part or add personal notes – all changes will be seen only by you.

Personal tabs can be accessed anytime from any device, even offline.
Learn more »
Give kudos to tab author, rate the tab!
1 2 3 4 5
comments
print report bad tab
guest
You may want to rate the tab now too:
select rating
Wanna post a correction for this tab? Suggest correction