Oops, an error
Loading. Please wait.

Mr Beautiful tab

1,602 views 1 this week
1 commentread comment
1 2 3 4 5
1 last vote to show rating
add to favorites
×
Save as Personal and add changes to this tab that will be seen only by you. Learn more ›
×
You can save this tab as Personal to edit and correct it or add notes. All changes will be seen only by you. Learn more »
launch autoscroll
font size
0
reset
how to read this tab
guitar tuner
edit
Autoscroll
slow
fast
+/-
esc
set tempo
stop
Author
Difficulty
-------------------------------------------------------------------------------
                             MR. BEAUTIFUL – Cheyenne Kimball
-------------------------------------------------------------------------------

Tabbed by: Mmhmm

** You’ll have to listen to the song to work out the strumming; what I’ve posted is just 
general idea. Since her album isn’t out yet, you can listen to a live performance of 
song on Overdrive on mtv.com.

INTRO

e|---333------------33333333--------------------|
B|----------------------------------------------|
G|----------22222-------------------------------|  play 4x
D|---222----22222-------------------------------|
A|---333------------22222222--------------------|
E|------------------33333333--------------------|

VERSE 1

e|-----333---------------------------33333333---------------------------------|
B|----------------------------------------------------------------------------|
G|--------------------22222---------------------------------------------------|
D|-----222------------22222---------------------------------------------------|
A|-----333---------------------------22222222---------------------------------|
E|-----------------------------------33333333---------------------------------|

   I look at all the pictures, and I have to wonder why

e|-----333---------------------------33333333---------------------------------|
B|----------------------------------------------------------------------------|
G|--------------------22222---------------------------------------------------|
D|-----222------------22222---------------------------------------------------|
A|-----333---------------------------22222222---------------------------------|
E|-----------------------------------33333333---------------------------------|

       You are always smiling, while I’m about to cry

e|-----333---------------------------------33333333---------------------------|
B|----------------------------------------------------------------------------|
G|--------------------22222---------------------------------------------------|
D|-----222------------22222---------------------------------------------------|
A|-----333---------------------------------22222222---------------------------|
E|-----------------------------------------33333333---------------------------|

  It’s hard to see the mirror, when you’re blinded by the sun

e|-----22222222--------------------------------------------------------------|
B|-----33333333--------------------------------------------------------------|
G|-----22222222-------------------22222222-----------------------------------|
D|--------------------------------22222222-----------------------------------|
A|---------------------------------------------------------------------------|
E|---------------------------------------------------------------------------|

    And I can’t say I’m sorry; I thought you were the one


CHORUS

e|-----------------33333333-----33333333-------------------------------------|
B|---------------------------------------------------------------------------|
G|---------------------------------------------------------------------------|
D|-----------------22222222--------------------------------------------------|
A|-----------------33333333-----22222222-------------------------------------|
E|------------------------------33333333-------------------------------------|

    I gotta keep leaving if I’m gonna get over you

e|---------------------------------333------------33333----------------------|
B|---------------------------------------------------------------------------|
G|---------------22222222----------------------------------------------------|
D|---------------22222222----------222---------------------------------------|
A|---------------------------------333------------22222----------------------|
E|------------------------------------------------33333----------------------|

    I gotta keep moving, I’ve done all that I can do

e|-----------33333333-------33333333-----------------------------------------|
B|---------------------------------------------------------------------------|
G|---------------------------------------------------------------------------|
D|-----------22222222--------------------------------------------------------|
A|-----------33333333-------22222222-----------------------------------------|
E|--------------------------33333333-----------------------------------------|

    I gotta believe it, and we both know the truth

e|------2--------------------------------------------------------------------|
B|------3-------------------2------------------------------------------------|
G|------2-------------------2------------------------------------------------|
D|--------------------------2------------------------------------------------|
A|---------------------------------------------------------------------------|
E|---------------------------------------------------------------------------|

    Goodbye Mr. Beautiful; someone I never knew

FILL

e|---333------------33333333--------------------|
B|----------------------------------------------|
G|----------22222-------------------------------|  play 2x
D|---222----22222-------------------------------|
A|---333------------22222222--------------------|
E|------------------33333333--------------------|

                    Goodbye Mr. Beautiful

VERSE 2

(same guitar as verse 1)

I think of all the moments wheni was so alone
You were there right next to me, but nobody was home
And I’m defined a prisoner insde your selfish world
There wasn’t enough room for me and all your other girls

CHORUS

(same as the first time)

BRIDGE

e|------------333x------------------------------------|
B|------222------x------------------------------------|
G|------222------x------------------------------------|
D|------222---222x------------------------------------|
A|------------333x------------------------------------|
E|---------------x------------------------------------|

               Don’t tell me you

e|------333--------------------------222x-------------|
B|-----------------------------------333x-------------|
G|-----------------------------------222x-------------|
D|--------------------------------------x-------------|
A|------222-----------------------------x-------------|
E|------333-----------------------------x-------------|

        Love me, you don’t know what love is anyway

e|------------333x------------------------------------|
B|------222------x------------------------------------|
G|------222------x------------------------------------|
D|------222---222x------------------------------------|
A|------------333x------------------------------------|
E|---------------x------------------------------------|

              I’m saying its

e|------333---------------222x------------------------|
B|------------------------333x------------------------|
G|------------------------222x------------------------|
D|---------------------------x------------------------|
A|------222------------------x------------------------|
E|------333------------------x------------------------|

        Over, and I wanna do what I say
e|------------33333-----------------------------------|
B|------222-------------------------------------------|
G|------222-------------------------------------------|
D|------222---22222-----------------------------------|
A|------------33333-----------------------------------|
E|----------------------------------------------------|

              I gave you a

e|------333---------------22222-----------------------|
B|------------------------33333-----------------------|
G|------------------------22222-----------------------|
D|----------------------------------------------------|
A|------222-------------------------------------------|
E|------333-------------------------------------------|

        Million chances to make it right

e|-------------------------------------33333333---------------|
B|------------------------------------------------------------|
G|------22222222----------------------------------------------|
D|------22222222-----------------------22222222---------------|
A|-------------------------------------33333333---------------|
E|------------------------------------------------------------|

        Make it right, make it right, never gonna get it right


CHORUS (2x)


.. and that’s all there is to it! The strummings really easy to figure out if you listen 
it, and really hard to write so check out the song!
Suggest correction
Creating personal tab
Creating personal tab
You can edit any tab online and save it as your Personal.

You can edit, replace or remove any tab part or add personal notes – all changes will be seen only by you.

Personal tabs can be accessed anytime from any device, even offline.
Learn more »
Give kudos to tab author, rate the tab!
1 2 3 4 5
comments
print report bad tab
1 comment total.
0 reply
Rock'N'Roll101 73 Dec 06, 2006 03:38 PM

|------------
|------------
|---4---4----
|---4---4----
|---2---2----


Replace D with this. Did research =)

guest
You may want to rate the tab now too:
select rating
Wanna post a correction for this tab? Suggest correction