Oops, an error
Loading. Please wait.
We have an official 25 Or 6 To 4 tab made by UG professional guitarists. Check out the tab »
×

25 Or 6 To 4 Acoustic tab

version 3
version 3

Whole song

  • I Show What Times that certain parts are played at... Show more

Interactive

by Chicago
547 views 3 this week
no commentswrite comment
1 2 3 4 5
2 more votes to show rating
add to favorites
×
Save as Personal and add changes to this tab that will be seen only by you. Learn more ›
×
You can save this tab as Personal to edit and correct it or add notes. All changes will be seen only by you. Learn more »
launch autoscroll
font size
0
reset
how to read this tab
guitar tuner
backing track
0:00
0:00
edit
Autoscroll
slow
fast
+/-
esc
set tempo
stop
Author
Difficulty
E-mail: albertovilla1993@gmail.com

Link To My Video: https://www.youtube.com/watch?v=eXGMNzT_raQ

Tuning: Standard 


 h = hammer on
 x = thumb slap on string(s)
(x) = Muted pick on that string 



[Intro] x1 

E|--------------------------------|--------------------------------|
B|--------------------------------|--------------------------------|
G| 2-------------- ---------------| 0-------------- ---------------|
D| 2-------------- ---------------| 0-------------- ---------------|
A| 0-- 0-- 0-- 0-- 0--------------|--------------------------------|
E|--------------------------------| 3-- 3-- 3-- 3-- 3--------------|

E|--------------------------------|--------------------------------|
B|--------------------------------|--------------------------------|
G| 2------------------------------| 2-------------- 1--------------|
D| 0------------------------------| 3-------------- 0--------------|
A|--------------------------------|--------------------------------|
E| 2-- 2-- 2-- 2-- 2--------------| 1-- 1-- 1-- 1-- 0-- 0-- 0-- ---|

[Verse 1] x2 

E|---------------------------------|-------------------------------|
B|---------------------------------|-------------------------------|
G| 2--------------------(x)--------| 0-----------------------------|
D| 2------------------(x)----------| 0--------------------(x)------|
A| 0-- 0-- x-- 0-- 0---------------|---------x----------(x)--------|
E|---------x---------------x-------| 3-- 3-- x-- 3-- 3------x------|

E|--------------------------------|--------------------------------|
B|--------------------------------|--------------------------------|
G| 2------------------------------| 2-------------- 1--------------|
D| 0--------------------(x)-------| 3-------------- 0--------------|
A|---------x---------(x)----------|---------x-----------x----------|
E| 2-- 2---x-- 2-- 2--------x-----| 1-- 1-- x-- 1-- 0-- x----------|



[Verse 2] x1 
    
e|------------------------------------- |--------------------0~ -------------|
B|--0~ -------------------------------0-|--3~ --------3~ ----2~ -------------|
G|--2------------------2~ ---------2----|-------2------------1~ ------1~ ----|
D|--2----------2------------------------|-------0---------------3------------|
A|--0--0--x--0------x----3--x-----------|x--------x-------x-------x-------x--|
E|--------x---------x--3----x--3--------|x----2---x--2----x--1----x-1-----x--|

e|----------5---7-5-5-3--222222-|--------------------------------------------|
B|--------5-5---5-0-0-0---------|-----------0---3~ --------3-----------------|
G|--4/5---5-5---5-0-0-0---------|-2-------2--------------2--------1----------|
D|--7-----7---------------------|----------------------3--------0------------|
A|--0---x-0---x-------x--xxxxxx-|---3-x-------x----------x--------x----------|
E|------x-----x---3-3-x--xxxxxx-|-2---x--2----x-----1----x----0---x----------|


[Verse 3] 

e|--------------------------3----3/5~ -----------|-------0-------3-----------|
B|-------------0----1-3---1----------------------|-0h1h3-0-------3-----------|
G|-----------2-----------------------------------|-2-----2--1----1-----------|
D|-----------------------------------------------|-3--------0----------------|
A|--0-0-x--0-----x------x------x---------x-----x-|-------x------x------------|
E|------x--------x--3---x-3----x-----2~ -x-2-2-x-|-1-----x--0-0-x------------|

e|--------------------------3----3/5~ -----------|-------0-------3-----------|
B|-------------0----1-3---1----------------------|-0h1h3-0-------3-----------|
G|-----------2-----------------------------------|-2-----2--1----1-----------|
D|-----------------------------------------------|-3--------0----------------|
A|--0-0-x--0-----x------x------x---------x-----x-|-------x------x------------|
E|------x--------x--3---x-3----x-----2~ -x-2-2-x-|-1-----x--0-0-x------------|

e|-----------5-7----8-7-----5-7----3~------------|----------0~----------------|
B|-----------5-5----5-0-----0-0------------------|-1~-------0~----------------|
G|-----------5-5----5-0-----0-0------------------|-2~-------1~----------------|
D|-----------------------------------------------|-3~-------------------------|
A|--0-0-x--0-----x--0----x-------x------x-----x--|-----x-------x--------------|
E|------x--------x----3--x--3-3--x---2~-x-2-2-x--|-1-1-x--0----x--------------|

e|--------------------------3----3/5~ -----------|-------0-------3-----------|
B|-------------0----1-3---1----------------------|-0h1h3-0-------3-----------|
G|-----------2-----------------------------------|-2-----2--1----1-----------|
D|-----------------------------------------------|-3--------0----------------|
A|--0-0-x--0-----x------x------x---------x-----x-|-------x------x------------|
E|------x--------x--3---x-3----x-----2~ -x-2-2-x-|-1-----x--0-0-x------------|


[Chorus]

e|--------5-7-8-7-5-7----|-------------------------|------3-5-3--3|-1------------|
B|-----------------------|-------------------------|-----3-----6--|-----------1--|
G|------5-------------12~|-----12-----12-12-----12~|-----4--------|--------2-----|
D|----7------------------|-------------------------|-----5--------|-----3--------|
A|--8--------------------|-------------------------|--------------|--------------|
E|-----------------------|-8~------8---------8-----|-8\3~---------|---1----------|

[Verse 1] x2 

E|---------------------------------|-------------------------------|
B|---------------------------------|-------------------------------|
G| 2--------------------(x)--------| 0-----------------------------|
D| 2------------------(x)----------| 0--------------------(x)------|
A| 0-- 0-- x-- 0-- 0---------------|---------x----------(x)--------|
E|---------x---------------x-------| 3-- 3-- x-- 3-- 3------x------|

E|--------------------------------|--------------------------------|
B|--------------------------------|--------------------------------|
G| 2------------------------------| 2-------------- 1--------------|
D| 0--------------------(x)-------| 3-------------- 0--------------|
A|---------x---------(x)----------|---------x-----------x----------|
E| 2-- 2---x-- 2-- 2--------x-----| 1-- 1-- x-- 1-- 0-- x----------|


[Verse 3] 

e|--------------------------3----3/5~ -----------|-------0-------3-----------|
B|-------------0----1-3---1----------------------|-0h1h3-0-------3-----------|
G|-----------2-----------------------------------|-2-----2--1----1-----------|
D|-----------------------------------------------|-3--------0----------------|
A|--0-0-x--0-----x------x------x---------x-----x-|-------x------x------------|
E|------x--------x--3---x-3----x-----2~ -x-2-2-x-|-1-----x--0-0-x------------|

e|--------------------------3----3/5~ -----------|-------0-------3-----------|
B|-------------0----1-3---1----------------------|-0h1h3-0-------3-----------|
G|-----------2-----------------------------------|-2-----2--1----1-----------|
D|-----------------------------------------------|-3--------0----------------|
A|--0-0-x--0-----x------x------x---------x-----x-|-------x------x------------|
E|------x--------x--3---x-3----x-----2~ -x-2-2-x-|-1-----x--0-0-x------------|

e|-----------5-7----8-7-----5-7----3~------------|----------0~----------------|
B|-----------5-5----5-0-----0-0------------------|-1~-------0~----------------|
G|-----------5-5----5-0-----0-0------------------|-2~-------1~----------------|
D|-----------------------------------------------|-3~-------------------------|
A|--0-0-x--0-----x--0----x-------x------x-----x--|-----x-------x--------------|
E|------x--------x----3--x--3-3--x---2~-x-2-2-x--|-1-1-x--0----x--------------|

e|--------------------------3----3/5~ -----------|-------0-------3-----------|
B|-------------0----1-3---1----------------------|-0h1h3-0-------3-----------|
G|-----------2-----------------------------------|-2-----2--1----1-----------|
D|-----------------------------------------------|-3--------0----------------|
A|--0-0-x--0-----x------x------x---------x-----x-|-------x------x------------|
E|------x--------x--3---x-3----x-----2~ -x-2-2-x-|-1-----x--0-0-x------------|

[Chorus]

e|--------5-7-8-7-5-7----|-------------------------|------3-5-3--3|-1------------|
B|-----------------------|-------------------------|-----3-----6--|-----------1--|
G|------5-------------12~|-----12-----12-12-----12~|-----4--------|--------2-----|
D|----7------------------|-------------------------|-----5--------|-----3--------|
A|--8--------------------|-------------------------|--------------|--------------|
E|-----------------------|-8~------8---------8-----|-8\3~---------|---1----------|

[Verse 1] x1 

E|---------------------------------|-------------------------------|
B|---------------------------------|-------------------------------|
G| 2--------------------(x)--------| 0-----------------------------|
D| 2------------------(x)----------| 0--------------------(x)------|
A| 0-- 0-- x-- 0-- 0---------------|---------x----------(x)--------|
E|---------x---------------x-------| 3-- 3-- x-- 3-- 3------x------|

E|--------------------------------|--------------------------------|
B|--------------------------------|--------------------------------|
G| 2------------------------------| 2-------------- 1--------------|
D| 0--------------------(x)-------| 3-------------- 0--------------|
A|---------x---------(x)----------|---------x-----------x----------|
E| 2-- 2---x-- 2-- 2--------x-----| 1-- 1-- x-- 1-- 0-- x----------|

[Verse 2] x1 
    
e|------------------------------------- |--------------------0~ -------------|
B|--0~ -------------------------------0-|--3~ --------3~ ----2~ -------------|
G|--2------------------2~ ---------2----|-------2------------1~ ------1~ ----|
D|--2----------2------------------------|-------0---------------3------------|
A|--0--0--x--0------x----3--x-----------|x--------x-------x-------x-------x--|
E|--------x---------x--3----x--3--------|x----2---x--2----x--1----x-1-----x--|

e|----------5---7-5-5-3--222222-|--------------------------------------------|
B|--------5-5---5-0-0-0---------|-----------0---3~ --------3-----------------|
G|--4/5---5-5---5-0-0-0---------|-2-------2--------------2--------1----------|
D|--7-----7---------------------|----------------------3--------0------------|
A|--0---x-0---x-------x--xxxxxx-|---3-x-------x----------x--------x----------|
E|------x-----x---3-3-x--xxxxxx-|-2---x--2----x-----1----x----0---x----------|

[Outro] x2 

E|---------------------------------|-------------------------------|
B|---------------------------------|-------------------------------|
G| 2--------------------(x)--------| 0-----------------------------|
D| 2------------------(x)----------| 0--------------------(x)------|
A| 0-- 0-- x-- 0-- 0---------------|---------x----------(x)--------|
E|---------x---------------x-------| 3-- 3-- x-- 3-- 3------x------|

E|--------------------------------|-----------------------||---------||
B|--------------------------------|-----------------------||---------||
G| 2------------------------------| 2-------------- 1-----||-2-------||
D| 0--------------------(x)-------| 3-------------- 0-----||-2-------||
A|---------x---------(x)----------|---------x-----------x-||-0-------||
E| 2-- 2---x-- 2-- 2--------x-----| 1-- 1-- x-- 1-- 0-- x-||---------||




************************************

| x   Dead note
| g   Grace note
| (n) Ghost note
| h   Hammer-on
| p   Pull-off
| r   Release
| >   Accented note
| t   Tapping
| b   Bend
| br  Bend release
| pb  Pre-bend
| pbr Pre-bend release
| /   Slide up
| \   Slide down
| ~   Vibrato
| s   Slap
| P   Pop
| PM  Palm mute
| TR  Trill
| N   Tremolo

************************************

            
            
Suggest correction
Creating personal tab
Creating personal tab
You can edit any tab online and save it as your Personal.

You can edit, replace or remove any tab part or add personal notes – all changes will be seen only by you.

Personal tabs can be accessed anytime from any device, even offline.
Learn more »
Give kudos to tab author, rate the tab!
1 2 3 4 5
comments
print report bad tab
guest
You may want to rate the tab now too:
select rating
Wanna post a correction for this tab? Suggest correction