Oops, an error
Loading. Please wait.
We have an official 25 Or 6 To 4 tab made by UG professional guitarists. Check out the tab »
×
by Chicago
8,491 views 27 this week
2 commentsread comments
1 2 3 4 5
x 14
add to favorites
launch autoscroll
font size
0
reset
guitar tuner
backing track
0:00
0:00
Autoscroll
slow
fast
+/-
esc
set tempo
stop
Author
Difficulty
intermediate
Song: 25 or 6 to 4
Artist: Chicago

--||---------|--------|--------|--------||
-4||---------|--------|--------|--------||       x2
-4||---------|--------|--------|--------||
--||-55555---|33333---|22222---|11110000||

--||---------|--------|--------|--------||
-4||---------|--------|--------|--------|| x6
-4||---------|--------|--------|--------||
--||-55-55---|33-33---|22-22---|11-100-0||

--||---------|---------|---------|--------|--------|--------|--------|--------||
-4||-3r------|---------|---------|----234-|5-5-5---|345-5-54|33333333|33333333||
-4||----3----|---0-1-2-|-3-3-3---|3-3-----|-------5|-----5--|--------|--------||
--||-----1---|-1-------|--------3|--------|--------|--------|--------|--------||

--||---------|--------|--------|--------||
-4||---------|--------|--------|--------|| x6
-4||---------|--------|--------|--------||
--||-55-55---|33-33---|22-22---|11-100-0||

--||---------|---------|---------|--------|--------|--------|--------|--------||
-4||-3r------|---------|---------|----234-|5-5-5---|345-5-54|33333333|33333333||
-4||----3----|---0-1-2-|-3-3-3---|3-3-----|-------5|-----5--|--------|--------||
--||-----1---|-1-------|--------3|--------|--------|--------|--------|--------||

--||---------|--------|--------|--------||
-4||---------|--------|--------|--------|| x6
-4||---------|--------|--------|--------||
--||-55-55---|33-33---|22-22---|11-100-0||

--||---------|--------|--------|--------||
-4||---------|--------|--------|--------|| x6
-4||---------|--------|--------|--------||
--||-55555555|33333333|22222222|11110000||

--||---------|--------|--------|--------||
-4||---------|--------|--------|--------|| x2
-4||---------|--------|--------|--------||
--||-55555---|33333---|22222---|11110000||

--||---------|--------|--------|--------||
-4||---------|--------|--------|--------|| x6
-4||---------|--------|--------|--------||
--||-55-55---|33-33---|22-22---|11-100-0||

--||---------|---------|---------|--------|--------|--------|--------|---------||
-4||-3r------|---------|---------|----234-|5-5-5---|345-5-54|33333333|33333333-||
-4||----3----|---0-1-2-|-3-3-3---|3-3-----|-------5|-----5--|--------|---------||
--||-----1---|-1-------|--------3|--------|--------|--------|--------|---------||

--||---------|--------|--------|--------||
-4||---------|--------|--------|--------|| x2
-4||---------|--------|--------|--------||
--||-55555---|33333---|22222---|11110000||

  Outro (gradually slow down)
--||--------|--------|--------|--------|----------||
-4||--------|--------|--------|--------|----------||
-4||55555---|33333---|22222222|11111111|0~--------||
--||--------|--------|--------|--------|----------||

r = rest

Comments or corrections? 
Email: spritez366@hotmail.com
Suggest correction
comments
print report bad tab
2 comments total.
+3 reply
amrasmord 10 Nov 20, 2013 11:49 PM

Very nice tab!

+2 reply
jattcastillo 10 Apr 10, 2017 06:20 AM

One of my favorite tabs.

guest
You may want to rate the tab now too:
select rating
Wanna post a correction for this tab? Suggest correction