Oops, an error
Loading. Please wait.

Beginnings bass

by Chicago
841 views 18 this week
no commentswrite comment
1 2 3 4 5
2 more votes to show rating
add to favorites
×
Save as Personal and add changes to this tab that will be seen only by you. Learn more ›
×
You can save this tab as Personal to edit and correct it or add notes. All changes will be seen only by you. Learn more »
launch autoscroll
font size
0
reset
guitar tuner
edit
Autoscroll
slow
fast
+/-
esc
set tempo
stop
Author
Difficulty
[Intro]

G|---------------------------------------------------------------------------|
D|---------------------------------------------------------------------------|
A|-------9-7-9----9-7--9-7-9--------9-7-9-----9-7--9-7-9---------------------|
E|-5--5--------7--------------5--5---------7---------------------------------|


[Verse]

   When I'm with you it doesn't matter where we are or what we're doing, I'm with you
G|----------------------------------------------------------------------------|
D|-----------------4-6-7-7-7-7-4------------------------------4-6-7-7-7-7-4---|
A|-----------4-5-7---------------7--5-4-5--7------------4-5-7-----------------|
E|-5--5--5-7----------------------------------5--5--5-7-----------------------|

  that's all that matters Time passes much too quickly, when we're together laughing
                          I wish I could sing it to you, oh no I wish I could sing it to you
G|-----------------------------------------------------------------------------------|
D|--------------------------------------2--3--4-5-5----------------2--3--4-5-5-------|
A|-7-5-4-4-4-4-4-4-4-4-3--------2-3-5-3---------------------2-3-5-3------------------|
E|------------------------3--3-----------------------3--3----------------------------|


[Chorus]

   Oh woah woah woah woah woah wooooaaaaaahowowowoaaahhhhhh
   Oh woah woah woah woah woah wooooaaaaaahowowowoaaahhhhhh

G|---------------------------------------------------------------------------|
D|---------------------------------------------------------------------------|
A|------9-7-9-----9-7--9-7-9--------9-7-9-----9-7--9-7-9---------------------|
E|-5--5-------7---------------5--5--------7----------------------------------|

   Mostly I'm silent.......
G|----------------------------------------------------------------------------|
D|----------------------------------------------------------------------------|
A|------4-4-5-5-5-6-6-7-7-7-77-7-7-7-7----------------------------------------|
E|-5--5-----------------------------------------------------------------------|


[Outro]

G|-----15-15-15-12--------12-12-12-10--------10-10-10-9-------12-12-12-10---|
D|-----------------15-----------------12----------------10----------------12|
A|--------------------------------------------------------------------------|
E|-5-5----------------3-3----------------1-1--------------3-3---------------|

G|----------------------------------------------|
D|---7-7----7----5-5---5-----3-3----3----5-5---5|
A|----------------------------------------------|
E|-5--5-5-5----3--3-3-3----1--1-1-1----3--3-3-3-|
Suggest correction
Creating personal tab
Creating personal tab
You can edit any tab online and save it as your Personal.

You can edit, replace or remove any tab part or add personal notes – all changes will be seen only by you.

Personal tabs can be accessed anytime from any device, even offline.
Learn more »
Give kudos to tab author, rate the tab!
1 2 3 4 5
comments
print report bad tab
guest
You may want to rate the tab now too:
select rating
Wanna post a correction for this tab? Suggest correction