Oops, an error
Loading. Please wait.

Call On Me tab

by Chicago
422 views 6 this week
no commentswrite comment
1 2 3 4 5
3 more votes to show rating
add to favorites
×
Save as Personal and add changes to this tab that will be seen only by you. Learn more ›
×
You can save this tab as Personal to edit and correct it or add notes. All changes will be seen only by you. Learn more »
launch autoscroll
font size
0
reset
how to read this tab
guitar tuner
backing track
0:00
0:00
edit
Autoscroll
slow
fast
+/-
esc
set tempo
stop
Author
Difficulty
[Intro]

 (Use a phaser pedal)

    Fmaj7           Gmaj7                Gm9

e|--1---------------3-------------------3------5---------5--------------------|
B|--1---------------3-------------------3-----------------3-------------------|
G|--1---2-----------3-----4-------------3------------------3------------------|
D|--1---2-----------3-----4-------------3-------------------------------------|
A|--1---3-----------3-----5-------------3------5------------------------------|
E|--1---------------3-------------------3-------------------------------------|

     A#m           Cm                Am9

e|---1------------3-------------------5------7---------7---------------------|
B|---1---2--------3-----4-------------5----------------5---------------------|
G|---1---3--------3-----5-------------5----------------5---------------------|
D|---1---3--------3-----5-------------5----------------5---------------------|
A|---1------------3-------------------5------7-------------------------------|
E|---1------------3-------------------5--------------------------------------|


   Gmaj7        Bbmaj7           Fmaj7           B9                 C9         

e|---2------------1-------------------------------2------------------3-------------|
B|----------------1---3------------1--------------2------------------3-------------|
G|----------------1---2------------2--------------2------------------3-------------|
D|----------------1---3------------3--------------2----4-------------3----5--------|
A|---2------------1----------------x--------------2------------------3-------------|
E|---3------------1----------------x--------------2------------------3-------------|

     
     F#m9        Gmaj7       F#m9          Gmaj7        F#           G          A
 
e|---2---4--------2-----------2----4---------2----------2------------3-----------5-------|
B|---2------------------------2-------------------------2------------3-----------5-------|
G|---2------------------------2-------------------------2---3--------3---4-------5---6---|
D|---2------------------------2-------------------------2---4--------3---5-------5---7---|
A|---2---4--------x-----------2----4---------x----------2---4--------3---5-------5---7---|
E|---2 -----------x-----------2--------------x----------2------------3-----------5-------|


[Verse]
 
  The feelin' was clear  clear as a blue sky on a sunny day     Everything was you
  Then came a change, when I said I would soon be leavin' you Nothing else to do,   oooh
  
     A                C#m7                      Bm7                   G#m7
e|---5-----------------4-------------------------7--------------------4--------------------|
B|---5-----------------4----5--------------------7--------------------4--------------------|
G|---5---6-------------4-------------------------7--------------------4--------------------|
D|---5---7-------------4----6--------------------7--------------------4--------------------|
A|---5---7-------------4-------------------------7----9---------------4-----6--------------|
E|---5-----------------4-------------------------7--------------------4--------------------|

 
 'Cause no one made me feel the way I felt with you, oh oohh 
  But please remember I'll never lose the thought of you
  
      Dmaj7            C#m7                 Bm7
e|----2----------------4--------------------2--------------------|
B|----2----------------4---5----------------2---3----------------|
G|----2----------------4--------------------2--------------------|
D|----0----------------4---6----------------2---4----------------|
A|----x----------------4--------------------2--------------------|
E|----x----------------4--------------------2--------------------|


[Chorus]

   Call on me 'cause I love you You know  I do, you love me too.  oo ooo oooo
   Call on me 'cause  I  love you You know  I do, you love me too.  oo ooo oooo
                                            You know I do, you love me too,   oo ooo
   
            F#m7        Gmaj7     F#m7        Gmaj7     F#m7          Gmaj7      F#
e|----------2------------2---------2------------2---------2-------------2--------2--------|
B|----------2----------------------2----------------------2----------------------2--------|
G|----------2----------------------2----------------------2----------------------2--3-----|
D|----------2----------------------2----------------------2----------------------2--4-----|
A|----------2---4--------2---------2---4--------2---------2---4---------2--------2--4-----|
E|----------2--------------3-------2------------3---------2-------------3--------2--------|


     F#        G           G#         
e|--2----------3-----------4----------------------------------------|
B|--2----------3-----------4----------------------------------------|
G|--2--3-------3---4-------4---5------------------------------------|
D|--2--4-------3---5-------4---6------------------------------------|
A|--2--4-------3---5-------4---6------------------------------------|
E|--2----------3-----------4----------------------------------------|


[verse 3]

You've got to find someone else to somehow take my place Share his life with you, oo ooo

   BbMaj7           Dm7                     Cm7                        Am7

e|--1----------------5-----------------------8--------------------------5--------------|
B|--1----3-----------5---6-------------------8--------------------------5--------------|
G|--1--2-------------5-----------------------8--------------------------5--------------|
D|--1----3-----------5-----7-----------------8--------------------------5--------------|
A|--1----------------5-----------------------8----10--------------------5---7----------|
E|--1----------------5-----------------------8--------------------------5--------------|

But if you need a friend, you can always count on me Count on me 'cause I love you

  EbMaj7             Dm7               Cm7         Dbm7           Gm7           Ab

e|--6----------------5------------------3-----------4-------------3------------4---------------|
B|--6----8-----------5---6--------------3---4-------4---5---------3------------4---------------|
G|--6--7-------------5------------------3-----------4-------------3------------4---5-----------|
D|--6----8-----------5-----7------------3-----5-----4-----6-------3------------4-----6---------|
A|--6----------------5------------------3-----------4-------------3---5--------4-----6---------|
E|--6----------------5------------------3-----------4-------------3------------4---------------|

 You know I do, you love me too

    Gm7        Ab                    
e|--3----------4---------------------------------------------------|
B|--3----------4---------------------------------------------------|
G|--3----------4--5--------------------------------------------|
D|--3----------4---6---------------------------------------------|
A|--3--5-------4---6---------------------------------------------|
E|--3----------4---------------------------------------------------|






[Outro]

You Can count on me oooh you can count on me, etc.....

      Gmaj7
e|-----2------------------------------------------------------------|
B|------------------------------------------------------------------|
G|------------------------------------------------------------------|
D|------------------------------------------------------------------|
A|-----2------------------------------------------------------------|
E|-----3------------------------------------------------------------|

            
            
Suggest correction
Creating personal tab
Creating personal tab
You can edit any tab online and save it as your Personal.

You can edit, replace or remove any tab part or add personal notes – all changes will be seen only by you.

Personal tabs can be accessed anytime from any device, even offline.
Learn more »
Give kudos to tab author, rate the tab!
1 2 3 4 5
comments
print report bad tab
guest
You may want to rate the tab now too:
select rating
Wanna post a correction for this tab? Suggest correction