Oops, an error
Loading. Please wait.

Hard To Say Im Sorry Tab

version 1
version 1

Whole song

Interactive

74,726 views 33 this week
2 commentsread comments
1 2 3 4 5
x 11
add to favorites
launch autoscroll
font size
0
reset
how to read this tab
guitar tuner
Autoscroll
slow
fast
+/-
esc
set tempo
stop
Help us to improve Ultimate-Guitar.com Take our survey!
×
E          A         B                    C#m              A   B E 
(8 downstrokes)
e|-4--------4-5--4----------------4---------------------------------0-|
B|--------5--------7-5--7-----4-7----7-5--4-^5------5-7--5-4--------0-|
G|------4-----------------------------------------6-----------6---4-1-|
D|------------------------------------------------------------------2-|
A|------------------------------------------------------------------2-|
E|------------------------------------------------------------------0-|

[Verse 1]
E                               B
 Everybody needs a little time away
            A
I heard her say
     B    C#m B
From each other
E                        B
  Even lovers need a holiday
A               B    C#m B
  Far away from each other

[Chorus 1]
C#m       A
  Hold me now
     C#m                    E
It's hard for me to say I'm sorry
C#m      A           Bsus4 B
  I just want you to stay

[Chorus 2]
E       A                   B
  After all that we've been through
C#m            A
I will make it up to you
B   C#m        A B
  I promise to
E                           B
  And after all that's been said and done
       C#m
You're just the part of me
            Bsus4 B Bsus4 B
I can't let go

[Verse 2]
E                            B
  Couldn't stand to be kept away
             A
Just for the day
     B    C#m B
>From your body
E                          B
  Wouldn't wanna be swept away
A             B   C#m        B
Far away from the one that I love

[Chorus 1]
C#m       A
  Hold me now
     C#m                    E
It's hard for me to say I'm sorry
C#m      A           Bsus4 B
  I just want you to know
C#m       A
  Hold me now
  C#m                         E
I really want to tell you I'm sorry
C#m       A             Bsus4 B
  I could never let you go

[Chorus 2]
 E       A                   B
  After all that we've been through
C#m            A
I will make it up to you
B   C#m        A B
  I promise to
E                           B
  And after all that's been said and done
       C#m                             B
You're just the part of me I can't let go

[Outro]
G       C                   D
  After all that we've been through
Em             C
I will make it up to you
D   Em        C D
  I promise to

[Solo in G: G  D  Em  D   G  D ]

                    Em        Dsus4 D
You're gonna be the lucky one
                                  C
e|-12----11-12--------11----------7-|
B|----12-----------12----------12-9-|
G|-----------------------11-13----9-|
D|--------------------------------9-|
A|--------------------------------7-|
E|----------------------------------|

e|----11-12--11----16-17----12-12---|
B|-14-----------14-------14---------|
G|----------------------------------|
D|----------------------------------|
A|----------------------------------|
E|----------------------------------|

e|-11----11----11-14-19-------------|
B|----14----12----------------------|
G|----------------------------------|
D|----------------------------------|
A|----------------------------------|
E|----------------------------------|

e|-----2---4-----------------------------2|
B|-5------------2----2---4---5-----4---5--|
G|----------------------------------------|
D|----------------------------------------|
A|----------------------------------------|
E|----------------------------------------|

F#
When we get there gonna jump in the air
Noone'll see us 'cause there's nobody there
After all, you know we really don't care
C#   B   A
Hold on, I'm gonna take you there
Suggest correction
comments
print report bad tab
2 comments total.
0 reply
guitar_junky15 10 Apr 11, 2008 11:41 PM

hey whats the ^ mean in the intro?

0 reply
gibsonsg145 10 Jun 05, 2008 06:37 AM

it means bend mate

guest
You may want to rate the tab now too:
select rating
Wanna post a correction for this tab? Suggest correction