Oops, an error
Loading. Please wait.

South California Purples Tab

version 2
version 2

Whole song

Interactive

3,879 views 18 this week
no commentswrite comment
1 2 3 4 5
please rate
add to favorites
launch autoscroll
font size
0
reset
how to read this tab
guitar tuner
Autoscroll
slow
fast
+/-
esc
set tempo
stop
Help us to improve Ultimate-Guitar.com Take our survey!
×
Difficulty
novice
  Opening
|-----------------|-----------------|-----------------|-----------------|
|-----------------|-----------------|-----------------|-----------------|
|-----------5-x-5-|-----------5-x-5-|-----------5-x-5-|-----------5-x-5-|
|-----------5-x-5-|-----------5-x-5-|-----------5-x-5-|-----------5-x-5-|
|-----------3-x-3-|-----------3-x-3-|-----------3-x-3-|-----------3-x-3-|
|-0-3-4-5-5-------|-0-3-4-5-5-------|-0-3-4-5-5-------|-0-3-4-5-5-------|


  Verse 1 -  Repeat for verses 2,3,4
|-----------------|-----------------|-----------------|-----------------|
|-----------------|-----------------|-----------------|-----------------|
|-----------5-x-5-|-----------5-x-5-|-----------5-x-5-|-----------5-x-5-|
|-----------5-x-5-|-----------5-x-5-|-----------5-x-5-|-----------5-x-5-|
|-----------3-x-3-|-----------3-x-3-|-----------3-x-3-|-----------3-x-3-|
|-0-3-4-5-5-------|-0-3-4-5-5-------|-0-3-4-5-5-------|-0-3-4-5-5-------|

|-----------------|-----------------|-----------------|-----------------|
|-----------------|-----------------|-----------------|-----------------|
|-----------5-x-5-|-----------5-x-5-|-----------5-x-5-|-----------5-x-5-|
|-----------5-x-5-|-----------5-x-5-|-----------5-x-5-|-----------5-x-5-|
|-----------3-x-3-|-----------3-x-3-|-----------3-x-3-|-----------3-x-3-|
|-0-3-4-5-5-------|-0-3-4-5-5-------|-0-3-4-5-5-------|-0-3-4-5-5-------|


|-------------------|------------------|-----------------|-----------------|
|-------------------|------------------|-----------------|-----------------|
|------------10-x-10|-----------10-x-10|-----------5-x-5-|-----------5---5-|
|------------10-x-10|-----------10-x-10|-----------5-x-5-|-----------5-x-5-|
|-0-----------8-x--8|-0----------8-x--8|-----------3-x-3-|-----------3-x-3-|
|---8-9-10-10-------|--8-9-10-10-------|-0-3-4-5-5-------|-0-3-4-5-5-------|


|-----------------|-----------------|-----------------------------------|
|-----------------|-----------------|-----------------------------------|
|-----------5-x-5-|-----------5---5-|-----------------------------------|
|-----------5-x-5-|-----------5-x-5-|-----------------------------------|
|-----------3-x-3-|-----------3-x-3-|--------12----10---9---10---12---7-|
|-0-3-4-5-5-------|-0-3-4-5-5-------|-5-8-12-10-----8---7----8---10---5-|

  Bridge
|-----------------|-----------------|-----------------|-----------------|
|-----------------|-----------------|-----------------|-----------------|
|-----------5-x-5-|-----------5-x-5-|-----------5-x-5-|-----------5-x-5-|
|-----------5-x-5-|-----------5-x-5-|-----------5-x-5-|-----------5-x-5-|
|-----------3-x-3-|-----------3-x-3-|-----------3-x-3-|-----------3-x-3-|
|-0-3-4-5-5-------|-0-3-4-5-5-------|-0-3-4-5-5-------|-0-3-4-5-5-------|

|-----------------|-----------------|-----------------|-----------------|
|-----------------|-----------------|-----------------|-----------------|
|-----------5-x-5-|-----------5-x-5-|-----------5-x-5-|-----------5-x-5-|
|-----------5-x-5-|-----------5-x-5-|-----------5-x-5-|-----------5-x-5-|
|-----------3-x-3-|-----------3-x-3-|-----------3-x-3-|-----------3-x-3-|
|-0-3-4-5-5-------|-0-3-4-5-5-------|-0-3-4-5-5-------|-0-3-4-5-5-------|


|---------------------|-------------|---------------------|-------------|
|---------------------|-------------|---------------------|-------------|
|---------------------|-------------|---------------------|-------------|
|---------------------|-------------|---------------------|-------------|
|-------7-10-12-10-14-|-7-10-12-5-5-|-------7-10-12-10-14-|-7-10-12-5-5-|
|-0-3-4-5--8-10--8-12-|-5--8-10-3-3-|-0-3-4-5--8-10--8-12-|-5--8-10-3-3-|


|--------------------|
|--------------------|
|--------------------|
|-2-2--2-2--2-2--2-2-|
|-2-2--2-2--2-2--2-2-|
|-0-0--0-0--0-0--0-0-|

  Verse 5

|-----------------|-----------------|-----------------|-----------------|
|-----------------|-----------------|-----------------|-----------------|
|-----------5-x-5-|-----------5-x-5-|-----------5-x-5-|-----------5-x-5-|
|-----------5-x-5-|-----------5-x-5-|-----------5-x-5-|-----------5-x-5-|
|-----------3-x-3-|-----------3-x-3-|-----------3-x-3-|-----------3-x-3-|
|-0-3-4-5-5-------|-0-3-4-5-5-------|-0-3-4-5-5-------|-0-3-4-5-5-------|

|-----------------|-----------------|-----------------|-----------------|
|-----------------|-----------------|-----------------|-----------------|
|-----------5-x-5-|-----------5-x-5-|-----------5-x-5-|-----------5-x-5-|
|-----------5-x-5-|-----------5-x-5-|-----------5-x-5-|-----------5-x-5-|
|-----------3-x-3-|-----------3-x-3-|-----------3-x-3-|-----------3-x-3-|
|-0-3-4-5-5-------|-0-3-4-5-5-------|-0-3-4-5-5-------|-0-3-4-5-5-------|


|-------------------|------------------|-----------------|-----------------|
|-------------------|------------------|-----------------|-----------------|
|------------10-x-10|-----------10-x-10|-----------5-x-5-|-----------5---5-|
|------------10-x-10|-----------10-x-10|-----------5-x-5-|-----------5-x-5-|
|-0-----------8-x--8|-0----------8-x--8|-----------3-x-3-|-----------3-x-3-|
|---8-9-10-10-------|--8-9-10-10-------|-0-3-4-5-5-------|-0-3-4-5-5-------|


|-----------------|-----------------|-----------------------------------|
|-----------------|-----------------|-----------------------------------|
|-----------5-x-5-|-----------5---5-|-----------------------------------|
|-----------5-x-5-|-----------5-x-5-|-----------------------------------|
|-----------3-x-3-|-----------3-x-3-|--------12----10---9---10---12---7-|
|-0-3-4-5-5-------|-0-3-4-5-5-------|-5-8-12-10-----8---7----8---10---5-|

   Outro

|-----------------|-----------------|-----------------|-----------------|
|-----------------|-----------------|-----------------|-----------------|
|-----------5-x-5-|-----------5-x-5-|-----------5-x-5-|-----------5-x-5-|
|-----------5-x-5-|-----------5-x-5-|-----------5-x-5-|-----------5-x-5-|
|-----------3-x-3-|-----------3-x-3-|-----------3-x-3-|-----------3-x-3-|
|-0-3-4-5-5-------|-0-3-4-5-5-------|-0-3-4-5-5-------|-0-3-4-5-5-------|

|-----------------|-----------------|-----------------|
|-----------------|-----------------|-----------------|
|-----------------|-----------------|-----------------|
|-----------Guitar Lick-------------|--10---9---7-----|
|-----------------|-----------------|--10---9---7-----|
|-0-3-4-----------|-----------------|---8---7---5-----|


This is my first tab ever. I still need to work on the solo in the middle and the end 
lick. Hope you enjoy it. The Old Dog still learning new tricks.
Suggest correction
Give kudos to tab author, rate the tab!
1 2 3 4 5
comments
print report bad tab
guest
You may want to rate the tab now too:
select rating
Wanna post a correction for this tab? Suggest correction