Oops, an error
Loading. Please wait.

Wishing You Were Here Tab

version 1
version 1

Intro

  • It has picking instead of just the chords.

Interactive

40 views 1 this week
no commentswrite comment
1 2 3 4 5
2 more votes to show rating
add to favorites
launch autoscroll
font size
0
reset
how to read this tab
guitar tuner
Autoscroll
slow
fast
+/-
esc
set tempo
stop
Help us to improve Ultimate-Guitar.com Take our survey!
×
Author
Difficulty
intermediate
About this tab version
It has picking instead of just the chords. Was this info helpful? Yes No
[Intro]

                                                               

e|--5----------5---------5-----------4----------4--------4----------3------3---------3-----|
B|--6--------6---6-------------------5--------5---5-----------------4-----4--4-------------|
G|--5-------5------5---5-------------4-------4-----4---4------------3----3----3---3--------|
D|--0-----0----------0---------------0-----0---------0--------------0---0-------0----------|
A|--0--------------------------------0------------------------------0----------------------|
E|--x--------------------------------x------------------------------x----------------------|


    

e|----------------------------------|
B|------3-------3-------3------3----|
G|-----4-------4-------4------4-----|
D|----0-------2-------3------5------|
A|--0-------------------------------|
E|----------------------------------|




************************************

| x   Dead note
| g   Grace note
| (n) Ghost note
| h   Hammer-on
| p   Pull-off
| r   Release
| >   Accented note
| t   Tapping
| b   Bend
| br  Bend release
| pb  Pre-bend
| pbr Pre-bend release
| /   Slide up
| \   Slide down
| ~   Vibrato
| s   Slap
| P   Pop
| PM  Palm mute
| TR  Trill
| N   Tremolo

************************************
Suggest correction
Give kudos to tab author, rate the tab!
1 2 3 4 5
comments
print report bad tab
guest
You may want to rate the tab now too:
select rating
Wanna post a correction for this tab? Suggest correction