Oops, an error
Loading. Please wait.

Black Lipstick tab

1,855 views 78 this week
no commentswrite comment
1 2 3 4 5
x 4
add to favorites
×
Save as Personal and add changes to this tab that will be seen only by you. Learn more ›
×
You can save this tab as Personal to edit and correct it or add notes. All changes will be seen only by you. Learn more »
launch autoscroll
font size
0
reset
how to read this tab
guitar tuner
edit
Autoscroll
slow
fast
+/-
esc
set tempo
stop
Author
Difficulty
*after first organ intro*

[Intro]
e|-------------------------------------------------------------------------------------|
B|-------------------------------------------------------------------------------------|
G|-------------------------------------------------------------------------------------|
D|-----------------------6-----------------------------4-------------------------------|
A|-----------------------7-----------------------------6-------------------------------|
E|-------------------------------------------------------------------------------------|x3
 
[Verse]
e|-----------6------------6---6-------------6---------6--(6)--------------------------|
B|-----------7------------7---7-------------4---------4--(4)--------------------------|
G|----------(8)----------(8)-(8)-----------(4)-------(4)-(4)--------------------------|
D|------------------------------------------------------------------------------------|
A|------------------------------------------------------------------------------------|
E|------------------------------------------------------------------------------------|x2

when it gets to the 686 part, play it twice
e|------------------------------------------------------------------------------------|
B|------------------------------------------------------------------------------------|
G|-------------------8-----------------------8----------------------------------------|
D|-------8-6--------------9---------8------------9-------9-8-9-8-----6-8-6---4--------|
A|--------------7-------------------------7------------------------------------6--[6]-|
E|------------------------------------------------------------------------------------|x4
[]= second time

On the the fourth one do this
same rule applies at the end to play twice
e|------------------------------------------------------------------------------------|
B|------------------------------------------------------------------------------------|
G|-------------------8----------------------------------------------------------------|
D|-------8-6--------------9/11---9--8-9--8b-8-----------6-8-6---4---------------------|
A|--------------7-----------------------------------------------------6---------------|
E|------------------------------------------------------------------------------------|

[Chorus] 
"tear it apart"   these are the chords, find a strumming pattern that sounds right to you.
        Emajor     Ebm
e|-------7----------6--------------------------------------------------------------------|
B|-------9----------7--------------------------------------------------------------------|
G|-------9----------8--------------------------------------------------------------------|
D|-------9----------8--------------------------------------------------------------------|
A|-------7----------6--------------------------------------------------------------------|
E|---------------------------------------------------------------------------------------|

[Solo]
Ditortion *preferably on the middle pick up or in the middle of the switch*
e|-------------------------------------------------------------------------------------|
B|-------------------------------------------------------------------------------------|
G|-------------------------------------------------------------------------------------|
D|---8--6--4--6--4--2--6--4-2--6----------8--6--4--6--4--2/11-10h11--8--4--------------|
A|--------------------------------6\4\2------------------------------------------------|
E|-------------------------------------------------------------------------------------|

e|-------------------------------------------------------------------------------------|
B|----------------------------------------11--9--7--9--7--5/14--12h14--11--------------|
G|-------------------------------------------------------------------------------------|
D|---8--6--4--6--4--2--6--4-2--6-------------------------------------------------------|
A|--------------------------------6\4\2------------------------------------------------|
E|-------------------------------------------------------------------------------------|

[Interlude]
*Carlos* for both guitars just make that an octive higher
e|----------------------------------------------------11---------------------------------|
B|----------------------------------------------------11------11--13b--13-11----11--13b--|
G|---12-12-------11----12-12-------11---12-12---------11---------------------------------|
D|---------12----------------12---------------12------13---------------------------------|
A|------------12----------------12---------------12---13---------------------------------|
E|----------------------------------------------------11---------------------------------|

e|-----------------------------------------------------------------11----------------------|
B|--13--11--11-----------------------------------------------------11------11--13b--13--11-|
G|---------------12-12-------11----12-12-------11----12-12---------11----------------------|
D|---------------------12----------------12----------------12------13----------------------|
A|------------------------12----------------12----------------12---13----------------------|
E|-----------------------------------------------------------------11----------------------|

e|-------------------------------------------------------------------------------------|
B|----11--13b----13-11-11--------------------------------------------------------------|
G|-------------------------------------------------------------------------------------|
D|-------------------------------------------------------------------------------------|
A|-------------------------------------------------------------------------------------|
E|-------------------------------------------------------------------------------------|

[Verse]
e|-----------6------------6---6-------------6---------6--(6)--------------------------|
B|-----------7------------7---7-------------4---------4--(4)--------------------------|
G|----------(8)----------(8)-(8)-----------(4)-------(4)-(4)--------------------------|
D|------------------------------------------------------------------------------------|
A|------------------------------------------------------------------------------------|
E|------------------------------------------------------------------------------------|x2

when it gets to the 686 part, play it twice
e|------------------------------------------------------------------------------------|
B|------------------------------------------------------------------------------------|
G|-------------------8-----------------------8----------------------------------------|
D|-------8-6--------------9---------8------------9-------9-8-9-8-----6-8-6---4--------|
A|--------------7-------------------------7------------------------------------6--[6]-|
E|------------------------------------------------------------------------------------|x4

On the the fourth one do this
same rule applies at the end to play twice
e|------------------------------------------------------------------------------------|
B|------------------------------------------------------------------------------------|
G|-------------------8----------------------------------------------------------------|
D|-------8-6--------------9/11---9--8-9--8b-8-----------6-8-6---4---------------------|
A|--------------7-----------------------------------------------------6---------------|
E|------------------------------------------------------------------------------------|

[Chorus]
"tear it apart"   these are the chords, find a strumming pattern that sounds right to you.
        Emajor     Ebm
e|-------7----------6--------------------------------------------------------------------|
B|-------9----------7--------------------------------------------------------------------|
G|-------9----------8--------------------------------------------------------------------|
D|-------9----------8--------------------------------------------------------------------|
A|-------7----------6--------------------------------------------------------------------|
E|---------------------------------------------------------------------------------------|

[Outro]
e|-------------------------------------------------------------------------------------|
B|-------------------------------------------------------------------------------------|
G|--------8-11-8-----------8-11-8-11--------8-11-8-11----------------------------------|
D|---8-11--------11---8-11-------------8-11-----------11-11----------------------------|
A|-----------------------------------------------------------9-11---6\4\2--------------|
E|-------------------------------------------------------------------------------------|x4


********************************

b= bend
/= slide up
\= slide down
h= hammer on
( )= ghost note or optional

********************************
Suggest correction
Creating personal tab
Creating personal tab
You can edit any tab online and save it as your Personal.

You can edit, replace or remove any tab part or add personal notes – all changes will be seen only by you.

Personal tabs can be accessed anytime from any device, even offline.
Learn more »
comments
print report bad tab
guest
You may want to rate the tab now too:
select rating
Wanna post a correction for this tab? Suggest correction