Oops, an error
Loading. Please wait.

Come Closer Tab

version 4
version 4

Whole song

Interactive

461 views 1 this week
no commentswrite comment
1 2 3 4 5
please rate
add to favorites
launch autoscroll
font size
0
reset
how to read this tab
guitar tuner
Tab Pro tools
  • play this tab
  • loop segment
  • change instrument
  • show fretboard
  • metronome
Autoscroll
slow
fast
+/-
esc
set tempo
stop
Contributor
Difficulty
intermediate
-----------------------------------------------------------------------------
              SONG NAME: Come closer - Band Name:Chickenfoot
-----------------------------------------------------------------------------
Tabbed by:samhurley7
Email:samhurley7@comcast.net

Tuning:EADGBE
   Verse, intro, and outro:   In this he uses is 3 fingers to 
pluck the strings for this individual part also 
he has a clean tone with the guitar turned down 
a bit to get the quite feel too it.
e|-7--9--7--9--7--9---------------------|
B|-9--9--9--9--9--9---------------------|
G|-8--8--8--8--8--8---------------------|
D|--------------------------------------|
A|--------------------------------------|
E|--------------------------------------|
  Chorus and Main Riff:   The slide is important because that is what gives
 the riff a cool calming sound.
 lastly don't hit the 8 and 9 or 
 the 6 and 7 together. 
e|--------------------------------------------------------|
B|-------9~---------7~---------9~---------7~--------------|
G|--6/8~---8h9p8-6~-----6-6/8~---8h9p8-6~-----------------|
D|--------------------------------------------------------|
A|--------------------------------------------------------| 
E|--------------------------------------------------------|   

    Bridge: 
    B5          F#            G#          D#        C#          G#
e|------------------------------------------------------------------------|
B|------------------------------------------------------------------------|
G|4--4--4--4----------------------------8--8--8---6--6--6--6--------------|
D|4--4--4--4--4--4--4--4----6--6--6--6--8--8--8---6--6--6--6--6--6--6--6--|
A|2--2--2--2--4--4--4--4----6--6--6--6--6--6--6---4--4--4--4--6--6--6--6--|
E|------------2--2--2--2----4--4--4--4------------------------4--4--4--4--|
   
   Solo: This is a type of arpeggio solo not much of 
  Jo's normal screaming notes or bases of phrygian type
  of solo but its still awesome.  
e|------11---|   -----9----|   ------11---|   ----11--|  \    
B|----12--14-|x5 --11---14-|X5 ----12--16-|X5 --11--14|X5 |   
G|-----------|   ----------|   -----------|   --------|   |X2 
D|-----------|   ----------|   -----------|   --------|   |   
A|-----------|   ----------|   -----------|   --------|   |   
E|--/--------|   ----------|   -----------|   --------|  /    

************************************

| /   slide up
| \   slide down
| h   hammer-on
| p   pull-off
| ~   vibrato
| +   harmonic
| x   Mute note
| b   Bend
| pb  Pre-bend
| br  Bend release
| pbr Pre-bend release
| brb Bend release bend

************************************
comments
We did not receive enough feedback on this tab! Please rate:
print report bad tab
1 2 3 4 5
I want to post or [tab]
guest
You may want to rate the tab now too:
select rating
Please do not post tabs as comments. Select "correction" instead!