Oops, an error
Loading. Please wait.

Get It Up Bass Tab

version 1
version 1

Whole song

Interactive

2,375 views 1 this week
no commentswrite comment
1 2 3 4 5
please rate
add to favorites
launch autoscroll
font size
0
reset
guitar tuner
Autoscroll
slow
fast
+/-
esc
set tempo
stop
Help us to improve Ultimate-Guitar.com Take our survey!
×
Author
Difficulty
Bassface01 1,088
intermediate
----------------------------------------------------------------------------
			     Get It Up - Chickenfoot
----------------------------------------------------------------------------

Tabbed By : Bassface01
e-mail: guneagleluke@charter.net

Tuning: Standard (EADG)



Intro/Chorus:
G|---------------------------------------|
D|--------------------------------4------| x2
A|--------------57---------------5-------|
E|2202-203-305-5---2202-203-305-5--------|

Verse:
G|-----------------------|
D|-----------------------|
A|-----------------------| x8
E|2202-202-202-22202-----|

Break:
G|----------------------------------|
D|-------------------------76-------|
A|6--6-6--------------7--7---75-----|
E|------975--5--5--5----------------|

Solo:
G|-------------------------------------------------------575--|
D|------------------------------------------------------5---75|
A|-----------------------------222222223333333355555555-------|
E|4-----------------3-----------------------------------------|
                     Last time doing riff   
G|------------------|-----------------7--------|
D|----------------5-|---------------\9---------|
A|---575------5757--|---575------575-----------|
E|057-----0-57------|057-----0-57--------------|

G|------------------------------|
D|------------------------------|x2
A|----754-----------------2-----|
E|7------5----0--5420-----------|

G|-----------------------|
D|-----------------------|
A|-----------------------| 
E|2202-202-202-22202-----|

Play Chorus Riff Until End
Ending Note is F# or 2nd Fret on E String


| /  slide up
| \  slide down
| h  hammer-on
| p  pull-off
| ~  vibrato
| +  harmonic
| x  Mute note
============================================================================
Suggest correction new What's this?
You can suggest a correction to this tab. Community and Mods will review your correction and vote to approve or reject it.
comments
We did not receive enough feedback on this tab! Please rate:
print report bad tab
1 2 3 4 5
guest
You may want to rate the tab now too:
select rating
Please do not post tabs as comments. Select "correction" instead!