Oops, an error
Loading. Please wait.

My Kinda Girl Bass Tab

version 1
version 1

Whole song

Interactive

3,724 views 3 this week
1 commentread comment
1 2 3 4 5
accurate
x 4
add to favorites
launch autoscroll
font size
0
reset
guitar tuner
Autoscroll
slow
fast
+/-
esc
set tempo
stop
Help us to improve Ultimate-Guitar.com Take our survey!
×
Contributor
Difficulty
Bassface01 1,088
novice
----------------------------------------------------------------------------
			     My Kinda Girl - Chickenfoot
----------------------------------------------------------------------------

Tabbed By : Bassface01
e-mail: guneagleluke@charter.net

Tuning: Standard (EADG)

Intro:
G|------------------------------------|
D|---------5----------7-----7777-----:|
A|7----------------------------------:|
E|------------------------------------|

Verse:
G|---------------------------------------|
D|---------------------------------------|
A|-------55555555------------542---------|
E|0000000--------555555555555---53-------|

2nd Verse Fill:
G|--------|
D|754-----|
A|---54---|
E|-----5--|

Chorus:
G|-----------------------------------------------------|
D|-----------------------------------------------------|
A|--------5555555533333333---------555555553333333532--|
E|33333333----------------333333333--------------------|

G|-----------------------------------------------------|
D|-----------------------32----------------------------|
A|--------555555553333333--32---------5555555533333333-|
E|33333333-------------------333333333-----------------|

There's lots of fills intbetween the chords in the chorus
you can make up your own.

Solo 1:
G|---------------------------------------|
D|---------------------------------------|
A|-------55555555------------542---------|
E|0000000--------555555555555---53-------|

Break:
G|------------------------------------|
D|------------------------------------|
A|------------------------------------|
E|0-0----0-0-3-5-0-0----0-0-3-2-0-0---|

Solo 2:
G|----------------------------------------------------|
D|----------------------------------------------------|
A|222222222222----------------------------------------|
E|------------3333555555555555555---------------------|

1st Fill      2nd Fill
G|--------| G|---------|
D|754-----| D|775544---|
A|---54---| A|------77-|
E|-----5--| E|---------|

G|------------------------------------|
D|------------------------------------|
A|------------------------------------|
E|0-0----0-0-3-5-0-0----0-0-3-2-0-0---|

Ending:
G|------------------------------------|
D|------------------------------------|
A|------------------------------------|
E|0-0----0-0-3-5-0-0----0-0-3-2-0-0---|



| /  slide up
| \  slide down
| h  hammer-on
| p  pull-off
| ~  vibrato
| +  harmonic
| x  Mute note
===============================================================================
Suggest correction new What's this?
You can suggest a correction to this tab. Community and Mods will review your correction and vote to approve or reject it.
comments
print report bad tab
1 comment total.
0 reply
matt169 63 wrote on July 10 2009, 04:19 pm

Sweet, thanks so much for this tab. Been looking for it everywhere. :D

I want to post or [tab]
guest
You may want to rate the tab now too:
select rating
Please do not post tabs as comments. Select "correction" instead!