Oops, an error
Loading. Please wait.

My Kinda Girl Tab

version 2
version 2

Whole song

Interactive

4,483 views 3 this week
no commentswrite comment
1 2 3 4 5
3 more votes to show rating
add to favorites
launch autoscroll
font size
0
reset
how to read this tab
guitar tuner
Autoscroll
slow
fast
+/-
esc
set tempo
stop
Help us to improve Ultimate-Guitar.com Take our survey!
×
Author
Difficulty
Tuning
intermediate
D A D G B E
Artist: Chickenfoot
Song: My Kinda Girl
Album: Chickenfoot
Tabbed By: Adrian Oczos aka fredi


Dropped D tuning DADGBE

OK so for now there are no good tabs for this song so this is my try.

This is how I AM playing this. I'm not saying this is 100% OK.


* Chords
* Strumming not shown!
* Note in [x] is "modifier" that I use while strumming the previous chord to modify it 
I think it's good to.
* No intro/solos. Sorry.


Verses

  Em   D  [Dsus4] or D5   A  [Asus4]

|-0--|-2->[3]-----+--5--|-0---------|
|-0--|-3----------+--3--|-2->[3]----|
|-0--|-2----------+--2--|-2---------|
|-2--|-0----------+--0--|-2---------|
|-2--|-0----------+--0--|-0---------|
|-2--|------------+-----|-----------|


Choruses

  G or G   D  [Dsus4] or D5   C  [?]

|-3-+--3-|-2->[3]-----+--5--|-0->[2]-|
|-3-+--0-|-3----------+--3--|-1------|
|-4-+--0-|-2----------+--2--|-0------|
|-5-+--0-|-0----------+--0--|-x------|
|-5-+--2-|-0----------+--0--|-3------|
|---+----|------------+-----|--------|


2:24 part

|---|-12-|-----------|---|-12-|-------------|
|---|-x--|-----------|---|-x--|-------------|
|---|-12-|-----------|---|-12-|-------------|
|-2-|----|-----------|-2-|----|-------------|
|-2-|----|-------0---|-2-|----|-------------|
|-2-|----|-2-2-5---0-|-2-|----|-2-2-4b5r4-0-|


2:39 part

  Bm   D  [Dsus4] or D5   A  [Asus4]

|-2--|-2->[3]-----+--5--|-0---------|
|-3--|-3----------+--3--|-2->[3]----|
|-4--|-2----------+--2--|-2---------|
|-4--|-0----------+--0--|-2---------|
|-2--|-0----------+--0--|-0---------|
|----|------------+-----|-----------|

Go Joe!
Suggest correction
Give kudos to tab author, rate the tab!
1 2 3 4 5
comments
print report bad tab
guest
You may want to rate the tab now too:
select rating
Wanna post a correction for this tab? Suggest correction