Oops, an error
Loading. Please wait.

Oh Yeah Bass Tab

version 1
version 1

Whole song

Interactive

8,934 views 1 this week
no commentswrite comment
1 2 3 4 5
x 3
add to favorites
launch autoscroll
font size
0
reset
guitar tuner
Autoscroll
slow
fast
+/-
esc
set tempo
stop
Help us to improve Ultimate-Guitar.com Take our survey!
×
Author
Difficulty
novice
----------------------------------------------------------------------------
			     Oh Yeah - Chickenfoot
----------------------------------------------------------------------------

Tabbed By : Bassface01
e-mail: guneagleluke@charter.net

Tuning: Standard (EADG)

Intro/Verse:
G|-------------------/9-9---------------------/9-------|
D|-----------------------------------------------------|
A|7--------5-----4---------7-------5-----4-------------|
E|-----------------------------------------------------|

Pre-Chorus:
G|-------------------------------------------------------------|
D|------------------------------------------------5------------|
A|3-3-3-3-3-3-3-2-0-0-0-0-0-0-0-0-3-3-3-3-3-3-3-3-----5--4--0--|
E|-------------------------------------------------------------|

Chorus:
G|-----------------------------------------------------------|
D|-----------------------------------------------------------|
A|------------0--0--0-5-4-0--------------0--0--0-5-4-0-------|
E|0--0--3--3-----------------0--0--3--3----------------------|

G|--------------------|
D|--------------------|
A|7-6-5-4-3--3--2--2--|
E|--------------------|

Break:
G|---------------------|
D|---------------------|x4
A|---------------------|
E|0---2-3---3----0-----|

G|-----------------------------------------------------------|
D|-----------------------------------------------------------|
A|-----------------------------------------------------------|
E|12\-003-03-03-03-03--003-03-03-03-03-003-03-03-03-03-%-12\-|
% = 03 pattern once more

Solo:
G|-------------------------------------------------------|
D|-------------------------------------------------------| Play Many
A|-------------------------/7----------------------------| Times
E|500-0-0-00---300-0-0-00----00-0-0-00---500-0-0-00------|

G|--------------------------------|
D|--------------------------------|
A|9------910-----10----9----7-----|
E|--------------------------------|


Ending
G|-----------------------------------------------------------|
D|-----------------------------------------------------------|
A|-----------------------------------------------------------|
E|12\-003-03-03-03-03--003-03-03-03-03-003-03-03-03-03-%--0--|
% = 03 pattern once more


| /  slide up
| \  slide down
| h  hammer-on
| p  pull-off
| ~  vibrato
| +  harmonic
| x  Mute note
============================================================================
Suggest correction
Give kudos to tab author, rate the tab!
1 2 3 4 5
comments
print report bad tab
guest
You may want to rate the tab now too:
select rating
Wanna post a correction for this tab? Suggest correction