Oops, an error
Loading. Please wait.

Sexy Little Thing Bass Tab

version 1
version 1

Whole song

Interactive

3,699 views 6 this week
1 commentread comment
1 2 3 4 5
2 more votes to show rating
add to favorites
launch autoscroll
font size
0
reset
guitar tuner
×
Best way to learn
"Sexy Little Thing"
Autoscroll
slow
fast
+/-
esc
set tempo
stop
Author
Difficulty
  follow
intermediate
----------------------------------------------------------------------------
			     Sexy Little Thing - Chickenfoot
----------------------------------------------------------------------------

Tabbed By : Bassface01
e-mail: guneagleluke@charter.net

Tuning: Standard (EADG)

Verse:
G|---------------------------------------------------------|
D|12\------------------------------------------------------|
A|---555555555555555555555555555555555555555555555555555555|
E|---------------------------------------------------------|

G|-----------------|
D|-----------------|
A|----2-3-4-5------|
E|3-5--------------|

Chorus:
G|------------------------------------------------|
D|------------------------------/1212121210-------|
A|3535-5--5555555-53-3--3535-5--------------------|
E|------------------------------------------------|
Don't play Slide 12 part for 2nd Chorus, just repeat pattern
There's a fill at the end of this pattern everytime except during the 2nd chorus.

Fill for 3rd Chorus:
G|--75-7---|
D|/7--7----|
A|---------|
E|---------|

2nd Fill For 3rd Chorus:
G|-------109-----|
D|---10-----1010-|
A|/12--12--------|
E|---------------|

Verse 2:
G|----------------------------------------------------------------------|
D|-----------------------------------------------------/12121210--10----|
A|555555555555555555555555555555---23555555555555555555---------12--12--|
E|------------------------------3-5-------------------------------------|

Break:
G|-----------------------------------------------/19----19\---|
D|---------------------/7-5------------/12-----------------12-|
A|--------------------------7-5--5----------------------------|
E|0-0000000-3-33333333----------------------------------------|

Solo:
G|-----------------------------------|
D|121210h12p10----10109h10p10--------|x3
A|------------12-------------10------|
E|-----------------------------------|

Ending:
G|----------|
D|----------|
A|3535\-----|
E|----------|




| /  slide up
| \  slide down
| h  hammer-on
| p  pull-off
| ~  vibrato
| +  harmonic
| x  Mute note
============================================================================
Suggest correction
Give kudos to tab author, rate the tab!
1 2 3 4 5
comments
print report bad tab
1 comment total.
0 reply
jjhand 13,997 Jul 20, 2009 06:10 PM

You might want to try separating the notes with a line "|" every 4 beats to help people keep track while playing all those notes in the same position. Its hard to tell how many 5's are in 5555555555555

guest
You may want to rate the tab now too:
select rating
Wanna post a correction for this tab? Suggest correction