Oops, an error
Loading. Please wait.

Sexy Little Thing Tab

version 3
version 3

Whole song

Interactive

1,874 views 1 this week
no commentswrite comment
1 2 3 4 5
please rate
add to favorites
launch autoscroll
font size
0
reset
how to read this tab
guitar tuner
Autoscroll
slow
fast
+/-
esc
set tempo
stop
Help us to improve Ultimate-Guitar.com Take our survey!
×
Contributor
shinka9 46
This is my first tab so please tell me all the ways I've screwed up. I think it's pretty 
though.
Intro/Verse:
-------------------------------|
-------------------------------|
-7-7-5h7p7-------5-5-4h5p4-----|
-----------7-5-------------5-5-|
-------------------------------|
-------------------------------|
Chorus:
-----------------------------|
-----------------------------|
-----------------------------|
-----------------------------|
-5-7-5-7-7-7-7-7-7-7-5-5-5-5-|
-3-5-3-5-5-5-5-5-5-5-3-3-3-3-|
        p.m.......    p.m...
She can drive...:
------------------------|
--3-------------------3-|
--2-------------------2-|
--0---------0---------0-|
------------x-----------|
------------3-----------|
1st Solo: This sounds horrible on its own
-----------------------------------------------------------------|
-12\--/12----------------------------------------------------14\-|
-----------12-10~------------12-----------12\10 -12-14p12--------|
------------------12---10-12-----------------------------12------|
-----------------------------------------------------------------|
-----------------------------------------------------------------|

-------------------------10\--------------------10-15b-13-10---|
-------------------------12\-----------------------------------|
-12-------10-12-14-12-----------10-12-14-14-14-----------------|
----12-10--------------------12--------------------------------|
---------------------------------------------------------------|
---------------------------------------------------------------|

------------------------13p10-------------------------------|
------------------------------13--13p10---------------------|
-12/14-12--------------------------------12--12p10----------|
----------12-15p14p12------------------------------12-10----|
---------------------------------------------------------12-|
------------------------------------------------------------|

2nd/outro solo sounds like just playing around with a wah with pentatonic scales around 
15th fret

End:
-15b--rb----------|
---------15-15-15-|
------------------|
------------------|
------------------|
------------------|

Order:
Intro/verse x8
chorus x2
Intro/verse x4
chorus x4
Intro/verse x4
chorus x4
she can drive...
1st solo
Intro/verse x4 (false ending)
chorus x8
2nd solo
Intro/verse and chorus at the same time for a unknown amount of times
ending
comments
We did not receive enough feedback on this tab! Please rate:
print report bad tab
1 2 3 4 5
I want to post or [tab]
guest
You may want to rate the tab now too:
select rating
Please do not post tabs as comments. Select "correction" instead!