Oops, an error
Loading. Please wait.

Soap On A Rope Bass Tab

version 1
version 1

Whole song

Interactive

7,947 views 3 this week
no commentswrite comment
1 2 3 4 5
accurate
x 4
add to favorites
launch autoscroll
font size
0
reset
guitar tuner
Tab Pro tools
  • play this tab
  • loop segment
  • change instrument
  • show fretboard
  • metronome
×
Best way to learn
"Soap On A Rope"
Autoscroll
slow
fast
+/-
esc
set tempo
stop
Contributor
Difficulty
intermediate
----------------------------------------------------------------------------
			     Soap On a Rope - Chickenfoot
----------------------------------------------------------------------------

Tabbed By :Bassface01 
e-mail: guneagleluke@charter.net

Tuning: Standard (EADG)

This song was so hard to tab out, there's a lot I couldn't hear so parts are missing.

Intro:
G|--------------------------------------------------------------|
D|---------------------------------------------------9--7------:|
A|---7---------------5-------------7---------------/7-/5-------:|
E|030-0---03050---030---5--00---030-0---03050---030--------30---|

Verse:
G|----------------------------------------------------------|
D|----------------------------------------------------------|
A|---7-----------------7---------------5------------7-------|
E|030-0-------------030-0---03050---030---5--00--030-0------|

G|-----------------------------------------------------------|
D|--------------------------9--7-----------------------------|
A|--------7---------------/7-/5-----------7------------------|
E|7\---030-0---03050---030--------30---030-0-----------------|

G|/9----7----------------------------------------------------|
D|----------9------------------------------------------------|
A|--------------7------7---------------5--------------7------|
E|------------------030-0---03050---030---5---00---030-0-----|

G|-------------------------------------------------|
D|----------------------------9--7-----------------|
A|----------7---------------/7-/5------------------|
E|-------030-0---03050---030--------0-0-0-35-------|

Chorus:
G|--------------------------------------------------------|
D|--------------------------------------------------------|
A|----4-5-4-5-6-7-----------------------------------------|
E|5-8-------------0--0-0-3-3-4-5--------------------------|
I'm having troubles figuring this out. 
The chord progression is ADE

Break:
G|----------------------------------------------|
D|----------------------------------------------|
A|----------------------------10--12--10--------|
E|0234--4567--78910--9101112----12--12--1210----|

G|----------------------------------------------|
D|---------------------------10--12--10---------|
A|0234--4567--78910-9101112----12--12--1210-----|
E|----------------------------------------------|

G|----------------------------------------------|
D|-------------------------------12--14--12-----|
A|2456--6789--9101112--11121314----14--14--1412-|
E|----------------------------------------------|

G|----------------------------------------------|
D|---------------------------10--12--10---------|
A|0234--4567--78910-9101112----12--12--1210-----|
E|----------------------------------------------|

Solo:
G|-------------------------7----------------------------7------|
D|----------------------/9---9-----------------------/9---9----|
A|--------/7\--------------------------/7\---------------------|
E|00--00--------00--00----------00--00-------00--00------------|

G|-------------------------------------------------------------|
D|-------------------------------------------------------------|
A|--------/7\----------/5--------------/7\----------/5---------|
E|00--00-------00--00-----5-3--00--00-------00--00-----5-3-----|

Verse 2:
G|----------------------------------------------------------|
D|----------------------------------------------------------|
A|---7-----------------7---------------5------------7-------|
E|030-0-------------030-0---03050---030---5--00--030-0------|

G|/131313131513---------------------------------------------|
D|------------------------------------9--7------------------|
A|------------------7---------------/7-/5-----------7-------|
E|---------------030-0---03050---030--------30---030-0------|

G|---------------------------------------------------------|
D|---------------------------------------------------------|
A|-------------------7---------------5--------------7------|
E|------------7\--030-0---03050---030---5---00---030-0-----|

G|-------------------------------------------------|
D|----------------------------9--7-----------------|
A|----------7---------------/7-/5------------------|
E|-------030-0---03050---030--------0-0-0-35-------|

Outro:
G|------------------------4-4-4-4----------------------|
D|-----------------------------------------------------|
A|--------0-0-0-0-2-2-2-2---------2-2-2-2--------------|
E|0-0-0-0----------------------------------------------|
This part has a lot of variations but I think this is right.

Ending:
G|-----------------------|
D|-----------------------|
A|---7-------------7-----|
E|030-0---------030-0----|




| /  slide up
| \  slide down
| h  hammer-on
| p  pull-off
| ~  vibrato
| +  harmonic
| x  Mute note
============================================================================
comments
print report bad tab
I want to post or [tab]
guest
You may want to rate the tab now too:
select rating
Please do not post tabs as comments. Select "correction" instead!