Oops, an error
Loading. Please wait.

Soap On A Rope Tab

version 2
version 2

Whole song

Interactive

1,713 views 1 this week
no commentswrite comment
1 2 3 4 5
x 3
add to favorites
launch autoscroll
font size
0
reset
how to read this tab
guitar tuner
Autoscroll
slow
fast
+/-
esc
set tempo
stop
Help us to improve Ultimate-Guitar.com Take our survey!
×
Author
This is just the intro.

e|--------------------------------------x------------------|
B|--------------------------------------3---2--------------|
G|--------------------------------------0---2--------------|
D|--2---2-------2---2-------2-----------0---2--------~-----|
A|--2---2-------2---2-------2-----------x---0--------------|
E|3p0---0h3p0h5p0---0h3p0h3p0--0h3p0----3------------------|

e|------------------------------------------------------------------------|
B|--------------------------------------/8-8-8-8-8-8---8/--7-5------------|
G|---------------------------------------9-9-9-9-9-9---9/--7-5----(7)-(7)-|
D|--2---2-------2---2-------2----------------------------------(0)(0)-(0)-|
A|--2---2-------2---2-------2---------------------------------------------|
E|3p0---0h3p0h5p0---0h3p0h3p0--0h3p0--------------------------------------|
Suggest correction
Give kudos to tab author, rate the tab!
1 2 3 4 5
comments
print report bad tab
guest
You may want to rate the tab now too:
select rating
Wanna post a correction for this tab? Suggest correction