Oops, an error
Loading. Please wait.

Soap On A Rope Tab

version 3
version 3

Whole song

Interactive

1,492 views 3 this week
no commentswrite comment
1 2 3 4 5
please rate
add to favorites
launch autoscroll
font size
0
reset
how to read this tab
guitar tuner
Autoscroll
slow
fast
+/-
esc
set tempo
stop
Help us to improve Ultimate-Guitar.com Take our survey!
×
Author
Standard Tuning, Heavy Distortion
You can bend the C (3rd fret A string) a quarter step to get the satch feel
                                        D/A   A5    E5
e|--------------------------------------------------------|
B|---------------------------------------3----------------|
G|---------------------------------------2-----2----------|
D|---------------------------------------0-----2----2-2---|
A|---0h3r0h7r0----0h3p0h5r0------0h3r0---0—----0----2-2---|
E|------------------------------------------------0-0-0---|


                                                        A5
e|-----------------------------------------------------------------||
B|-----------------------------------------------------------------||
G|-------------------------------------------9-------7----2-2-----o||
D|---------------------------------------/7------/5-------2-2------||
A|---0h3r0h7r0----0h3p0h5r0------0h3r0---—--------------0-0-0-----o||
E|-----------------------------------------------------------------||
Suggest correction
Give kudos to tab author, rate the tab!
1 2 3 4 5
comments
print report bad tab
guest
You may want to rate the tab now too:
select rating
Wanna post a correction for this tab? Suggest correction