Oops, an error
Loading. Please wait.

Soap On A Rope Tab

version 4
version 4

Whole song

Interactive

3,626 views 3 this week
no commentswrite comment
1 2 3 4 5
x 5
add to favorites
launch autoscroll
font size
0
reset
how to read this tab
guitar tuner
Autoscroll
slow
fast
+/-
esc
set tempo
stop
Help us to improve Ultimate-Guitar.com Take our survey!
×
Artist: Chickenfoot
Song: Soap On A Rope
Album: Chickenfoot
Year: 2009
Tabbed by DoteStudios
Email is undermywheels71@gmail.com

Awesome riff by Joe Satriani

E--------------------------------------------------------------------|
B-----------------------------------------------3--------------------|
G-----------------------------------------------2----2---------------|
D----------2------------------------------------0----2---------------|
A----------------------------0-----------------------0----2--2-------|
E-0--3--0-----0-----0--3--0-----0-----0--3--0-------------0--0----0--|

E---------------------------------------------------------------------|
B------------------------------------------------3--------------------|
G--------------------------------------------/2-------------2---------|
D-------2--------------------------------------------0--/2------------|
A-------------------------0-----------------------------------------2-|
E-3--0-----0-----0--3--0-----0-----0--3--0-----------------------3--0-|
Suggest correction
comments
print report bad tab
guest
You may want to rate the tab now too:
select rating
Wanna post a correction for this tab? Suggest correction