Oops, an error
Loading. Please wait.

Ahora Quien tab

160 views 1 this week
no commentswrite comment
1 2 3 4 5
3 more votes to show rating
add to favorites
×
Save as Personal and add changes to this tab that will be seen only by you. Learn more ›
×
You can save this tab as Personal to edit and correct it or add notes. All changes will be seen only by you. Learn more »
launch autoscroll
font size
0
reset
how to read this tab
guitar tuner
edit
Autoscroll
slow
fast
+/-
esc
set tempo
stop
SIbm
A quién van a engañar ahora tus brazos
                                 MIbm
A quién van a mentirle ahora tus labios
A quién vas a decirle ahora "te amo"
LAb
Y luego en el silencio le darás tu cuerpo
Detendrás el tiempo sobre la almohada
Pasarán mil horas en tu mirada
                           DO#
Sólo existirá la vida amándote
        FA
Ahora quién?


Y quién te escribirá poemas y cartas
Y quién te contará sus miedos y faltas
A quién le dejarás dormirse en tu espalda
Y luego en el silencio le dirás "te quiero"
Detendrás su aliento sobre tu cara
Perderá su rumbo en tu mirada
Y se le olvidará la vida amándote
Ahora quién?

Ahora quién si no soy yo
Me miro y lloro en el espejo y me siento estúpido
Ilógico, y luego te imagino toda regalando el olor de tu piel
Tus besos, tu sonrisa eterna y hasta el alma en un beso
En un beso va el alma
Y en mi alma está el beso que pudo ser

A quién le dejarás tu aroma en la cama?
A quién le quedará el recuerdo mañana?
A quién le pasarán las horas con calma?
Y luego en el silencio deseará tu cuerpo
Se detendrá el tiempo sobre su cara
Pasará mil horas en la ventana
Se le acabará la voz llamándote
Ahora quién?
Ahora quién?

Ahora quién si no soy yo?
Me miro y lloro en el espejo y me siento estúpido
Ilógico, y luego te imagino toda regalando el olor de tu piel
Tus besos, tu sonrisa eterna y hasta el alma en un beso
En un beso va el alma
En mi alma está el beso que pudo ser

Solo bronces
------------------------------------------------------------------
------------------------------------------------------------------
-10-8---8/10-8---8/10---11-11-10-10-8-8--------8------------------
-----11-------11-----------------------11-10-11-------------------
-------------------------------------------------9-9-8-9----------
------------------------------------------------------------------

------------------------------------------------------------------
------------------------------------------------------------------
---------------------8--------------------------------------------
---------8-10-10-8----11-10-10-8----------------------8-11-10-----
--9/11-11----------11-----------11-11-11-9-9-8--6-8-11------------
------------------------------------------------------------------

---------------------------------------------11-13--11------------
------11--14-13-11(*)-14-14-13-13-13-13-13-14-----14--------------
-10-13------------------------------------------------------------
------------------------------------------------------------------
------------------------------------------------------------------
------------------------------------------------------------------

-11-11-----------11--11-11-11-----------11--11-11-----------------
------14-14-13-13------------14-14-13-13---------14-14-13-13-11---
---------------------------------------------------------------13-
------------------------------------------------------------------
------------------------------------------------------------------
------------------------------------------------------------------

-------------------------------------------
---11-13----------------------13-13--------
-13-----13-11-10--8-10--10-10------13-10---
----------------11-------------------------
-------------------------------------------
-------------------------------------------

(*):tocar las veces necesarias.

teclado = se puede tocar con bajo o con tocarra da lo mismo.

G--------------------  -8--11------  ----5---------
D----8--11--------x4-  --8---11-x2-  -6---------x8-
A----------8--11-----  ------------  ------6--9----

G--6---------
D-7--8-11-X3-
A------------


COMIENZO DEL CORO (sib)

E--------6----6-----6-------6---
B------6-----6-----6------6----
G----6-----6-----6------6-----
D--8-----7-----6------5-------

            
            
Suggest correction
Creating personal tab
Creating personal tab
You can edit any tab online and save it as your Personal.

You can edit, replace or remove any tab part or add personal notes – all changes will be seen only by you.

Personal tabs can be accessed anytime from any device, even offline.
Learn more »
Give kudos to tab author, rate the tab!
1 2 3 4 5
comments
print report bad tab
guest
Wanna post a correction for this tab? Suggest correction