Oops, an error
Loading. Please wait.

Spanish Girl chords

63 views 1 this week
no commentswrite comment
1 2 3 4 5
3 more votes to show rating
add to favorites
×
Save as Personal and add changes to this tab that will be seen only by you. Learn more ›
×
You can save this tab as Personal to edit and correct it or add notes. All changes will be seen only by you. Learn more »
launch autoscroll
font size
0
reset
transpose
0
reset
display chords
guitar tuner
edit
Autoscroll
slow
fast
+/-
esc
set tempo
stop
Strumming
There is no strumming pattern for this song yet. and get +5 IQ
Pa®a ue le £ntienÐan  al int®ø y para §abe® el ®itmø, e§cu©hen la ©anción. 
Alguna Ðuda Ø a©la®a©ión  //ándenm£la a mi ©o®®eø.
                                                    ¶u£ bUeNa ®¤La!!

INTRO
            Cm
6------------------------|
5------------------------|
4------------------------|
3-8-8-8---8-----8-8------|  x2
2-8-8-8-8-8-8-8-8-8-8-8--|
1-------6---8-8-----6-8--|
           A#
6------------------------|
5------------------------|
4------------------------|
3-7-7-7--7-7-----7-7-7---|  x2
2-6-6-6--8-6-6-6-6-6-8-6-|
1------------6-6-------6-|


Cm
Su caminar tan seguro
F                     Cm
sus ojos claros como ninguno
F              A#
y una sonrisa a flor de piel
Gm          A#
Oh oh  spanish girl
Gm          A#
Oh oh spanish girl


 Cm
El alma llena de orgullo
F                  Cm
con un carácter siempre tan suyo
F              A#
y esa manera de querer
Gm              A#
Oh oh spanish girl
Gm            A#
Oh oh spanish girl

         Gm
Me enamoré
                     F
al verla por primera veeeeez
         Gm
yo que juré
                     F
ya nunca más volverlo a hacer

     Cm
Y desde entonces soy feliz

de nuevo he vuelto a sonreír

  D#                    F
yo nunca había querido asi, asi

Cm
Ella es mi mar mi montaña
F                     Cm
ella es mi tempestad y mi calma
F                     A#
ella es un sueño de mujer
Gm              A#
Oh oh spanish girl
Gm              A#
Oh oh spanish girl

Cm
Ella es mi noche en el alba
F                       Cm
ella es  coraje  para mi alma
F                A#
mi vida yo su amante fiel
Gm             A#
Oh oh spanish girl
Gm             A#
Oh oh spanish girl

 Gm                        F
6---------------------------------------------|
5---------------------------------------------|
4---------------------------------------------|
3------7-7-------7-7-----------5-5------5-5---|  x3
2-8-8---6-6--8-8--6-6-8---6-6---4-4-6-6--4-4-6|
1---------------------------------------------|

 Gm                        F                Gm  A#
6------------------------------------------------|
5------------------------------------------------|
4------------------------------------------------|
3------7-7-------7-7-----------5-5------5-5------|
2-8-8---6-6--8-8--6-6-8---6-6---4-4-6-6--4-4-6--8|
1------------------------------------------------|

        Gm
Me enamoré
                     F
al verla por primera veeeeez
         Gm
yo que juré
                     F
ya nunca más volverlo a hacer

    Cm
Y desde entonces soy feliz

de nuevo he vuelto a sonreír

  D#                    F
yo nunca había querido asi, asi


Cm
Ella es mi mar mi montaña
F                     Cm
ella es mi tempestad y mi calma
F                     A#
ella es un sueño de mujer
Gm              A#
Oh oh spanish girl
Gm              A#
Oh oh spanish girl

Cm
Ella es mi noche en el alba
F                       Cm
ella es  coraje  para mi alma
F                A#
mi vida yo su amante fiel

Gm             A#
Oh oh spanish girl
Gm             A#
Oh oh spanish girl......


          Cm
6------------------------
5------------------------
4------------------------
3-7-7-7---7-----7-7------   x2
2-7-7-7-7-7-7-7-7-7-7-7--
1-------5---7-7-----5-7-

          A#
6------------------------
5------------------------
4------------------------
3-6-6-6--6-6-----6-6-6---   x2
2-5-5-5--7-5-5-5-5-5-7-5-
1------------5-5-------5-

    Cm        Cm A# Cm
6-------------------|
5-------------------|
4-------------------|
3-7-7-7---7---------|
2-7-7-7-7-7-7---7-7-|
1-------5---7---5-7-|

            
            
Suggest correction
Creating personal tab
Creating personal tab
You can edit any tab online and save it as your Personal.

You can edit, replace or remove any tab part or add personal notes – all changes will be seen only by you.

Personal tabs can be accessed anytime from any device, even offline.
Learn more »
Give kudos to tab author, rate the tab!
1 2 3 4 5
comments
print report bad tab
guest
Wanna post a correction for this tab? Suggest correction