Oops, an error
Loading. Please wait.

A Promise Tab

version 2
version 2

Whole song

Interactive

1,072 views 1 this week
1 commentread comment
1 2 3 4 5
2 more votes to show rating
add to favorites
launch autoscroll
font size
0
reset
how to read this tab
guitar tuner
Autoscroll
slow
fast
+/-
esc
set tempo
stop
Help us to improve Ultimate-Guitar.com Take our survey!
×
a promise tabs
to all emo's out der
just listen dis song and u know what is mean

tunig the guitar in drop d
intro:

e|-------------------------------------------------|
b|-------------------------------------------------|
g|--10---10-10-10-10------4----4-4-4-4----4--------|
d|--0----0-0-0-0-0--------0----0-0-0-0----0--------| (2x)
a|--8----8-8-8-8-8--------2----2-2-2-2----2--------|
d|-------------------------------------------------|

e|-------------------------------------------------|
b|-------------------------------------------------|
g|-44444-------------------------------------------|
d|-44444--22222--666666----222222------------------| (2x)
a|-22222--22222--666666----222222------------------|
d|--------22222--666666----222222------------------|
verse:1 now u are my beloved ghost.....

e|-------------------------------------------------|
b|---------------2---------------------------------|
g|---3--4--3--4-----3--4--3--4--\6-----------------| (2x)
d|-------------------------------------------------|
a|-------------------------------------------------|
d|-------------------------------------------------|
guitar:2 riffing
repeat verse:1(4x)
repeat guitar:2 riff.

e|-------------------------------------------------|
b|-------------------------------------------------|
g|-------------------------------------------------|
d|---22222222---666666666----222222222---6666666---|
a|---22222222---666666666----222222222---6666666---|
d|---22222222---666666666----222222222---6666666---|
im here to stay......

e|-------------------------------------------------|
b|-------------------------------------------------|
g|-444444------------------------------------------|
d|-444444-2222222-66666666--444444444--22222222----| (2x)
a|-222222-2222222-66666666--444444444--22222222----|
d|--------2222222-66666666--444444444--22222222----|
refrain:im ok give some rest of me...

e|-------------------------------------------------|
b|-------------------------------------------------|
g|-------------------------------------------------|
d|-6666666-2222222--666666666--22222222------------|
a|-6666666-2222222--666666666--22222222------------|
d|-6666666-2222222--666666666--22222222------------|
im not alone...

e|-------------------------------------------------|
b|-------------------------------------------------|
g|-------------------------------------------------|
d|--6--4--2---------4444444444444------------------|
a|--6--4--2-(2x)----4444444444444------------------|
d|--6--4--2---------2222222222222------------------|
denied another day...
repeat:verse1(4x)
repeat:im not alone...

e|-------------------------------------------------|
b|-------------------------------------------------|
g|-------------------------------------------------|
d|--222222222-------22222222222--------------------|
a|--222222222-------22222222222--------------------|
d|--222222222-------22222222222--------------------|
to sayyy!!!!

just listen to the music and u know it learn to die visit
me in friendster kuji_flores@yahoo.com & aisleofdevonians@yahoo.com
learn how more emos inlove....
Suggest correction
Give kudos to tab author, rate the tab!
1 2 3 4 5
comments
print report bad tab
1 comment total.
0 reply
zedelenca 10 Apr 19, 2008 12:05 AM

Is this right
di ko pa natry

try ko nxt time lang yung comment
hahaha

guest
You may want to rate the tab now too:
select rating
Wanna post a correction for this tab? Suggest correction