Oops, an error
Loading. Please wait.

Diamond Shotgun Bass Tab

1,369 views 3 this week
no commentswrite comment
1 2 3 4 5
please rate
add to favorites
launch autoscroll
font size
0
reset
guitar tuner
Autoscroll
slow
fast
+/-
esc
set tempo
stop
Help us to improve Ultimate-Guitar.com Take our survey!
×
Difficulty
intermediate
kung may corrections, e-mail niu q:
paul.ongoco_ridesx@yahoo.com
Name: Paul Emil Ongoco =)
================================

Intro: NONE

Verse 1: (Blow out the candles...)
	
|---------------------------------------------------------------|
|---------------------------------------------------------------|
|---------------------------------------------------------------|
|-0-0-0-0-0-0-0-0-7-7-7-9-9-9-7---0-0-0-0-0-0-0-0-7-7-7-9-9-9-7-|


Chorus:(Fly black hearts into the...)

    Fly...         sky...           fall...         ...lost stars            
|---------------------------------------------------------------|
|---------------------------------------------------------------|
|-4444444444444444-7777777777777777-22222222222222222-----------|
|--------------------------------------------------------5-7----|



Verse 2: (We’re ghost so they say...)
	
|---------------------------------------------------------------|
|---------------------------------------------------------------|
|---------------------------------------------------------------|
|-0-0-0-0-0-0-0-0-7-7-7-9-9-9-7---0-0-0-0-0-0-0-0-7-7-7-9-9-9-7-|




Pre-Chorus: (From the top of...)
	
|---------------------------------------------------------------|
|---------------------------------------------------------------|
|---------------------------------------------------------------|
|-0-0-0-0-0-0-0-0-7-7-7-9-9-9-7---0-0-0-0-0-0-0-0-7-7-7-9-9-9-7-|


Chorus:(Fly black hearts into the...) (note: x2)

   Fly...       ...sky...        ...fall...         ...lost stars
|---------------------------------------------------------------|
|---------------------------------------------------------------|
|-4444444444444444-7777777777777777-22222222222222222-----------|
|--------------------------------------------------------5-7----|







Bridge: (Lock and load baby...)(sabyan m lng ung pagsabi ng lock ang load, baby lets go)

|---------------------------------------------------------------|
|---------------------------------------------------------------|
|---------------------------------------------------------------|
|-0--00---0---0--00---0---00--0---0---00---0---00---0---0-------|


(tapos tatahimik sandali kapag sinabi “fly black hearts into the”)

eto pasok ka sa SKY:

       ...sky           ...fall...          ...start to see...
|----------------------------------------------------------------|
|----------------------------------------------------------------|
|---------7777777777777777-22222222222222222---0000000000000000--|
|----------------------------------------------------------------|


Chorus: (Fly black hearts into...)
 Fly...        ...sky...        ...fall...         ...lost stars
|---------------------------------------------------------------|
|---------------------------------------------------------------|
|-4444444444444444-7777777777777777-22222222222222222-----------|
|--------------------------------------------------------5-7----|


Outro:(Lock and load, baby let’s go)(sabayan nlng ulit)

|---------------------------------------------------------------|
|---------------------------------------------------------------|
|---------------------------------------------------------------|
|-0--00---0---0--00---0---00--0---0---00---0---00---0---0-------|


e2 ung ending:

  LOCK AND LOAD!!!
|---------------|
|---------------|
|---------------|
|--0----0---0---|


Suggest correction
What's this?
You can suggest a correction to this tab. Community and Mods will review your correction and vote to approve or reject it.
comments
We did not receive enough feedback on this tab! Please rate:
print report bad tab
1 2 3 4 5
guest
You may want to rate the tab now too:
select rating
Please do not post tabs as comments. Select "correction" instead!